ISO-10303-21;
HEADER;
FILE_DESCRIPTION (( 'STEP AP214' ),
    '1' );
FILE_NAME ('4874-E0W.STEP',
    '2009-12-21T17:05:37',
    ( ' ' ),
    ( ' ' ),
    'SwSTEP 2.0',
    'SolidWorks 2009',
    '' );
FILE_SCHEMA (( 'AUTOMOTIVE_DESIGN' ));
ENDSEC;

DATA;
#1 = APPLICATION_CONTEXT ( 'automotive_design' ) ;
#2 = PRODUCT ( '4874-E0W', '4874-E0W', '', ( #3 ) ) ;
#3 = PRODUCT_CONTEXT ( 'NONE', #5, 'mechanical' ) ;
#4 = APPLICATION_PROTOCOL_DEFINITION ( 'draft international standard', 'automotive_design', 1998, #5 ) ;
#5 = APPLICATION_CONTEXT ( 'automotive_design' ) ;
#6 = APPLICATION_PROTOCOL_DEFINITION ( 'draft international standard', 'automotive_design', 1998, #1 ) ;
#7 = PRODUCT_DEFINITION_CONTEXT ( 'detailed design', #1, 'design' ) ;
#8 = PRODUCT_DEFINITION ( 'UNKNOWN', '', #9, #7 ) ;
#9 = PRODUCT_DEFINITION_FORMATION_WITH_SPECIFIED_SOURCE ( 'ANY', '', #2, .NOT_KNOWN. ) ;
#10 = PRODUCT_DEFINITION_SHAPE ( 'NONE', 'NONE',  #8 ) ;
#11 = SHAPE_DEFINITION_REPRESENTATION ( #10, #312 ) ;
#12 = PRODUCT_RELATED_PRODUCT_CATEGORY ( 'part', '', ( #2 ) ) ;
#13 =( NAMED_UNIT ( * ) SI_UNIT ( $, .STERADIAN. ) SOLID_ANGLE_UNIT ( ) );
#14 = PRESENTATION_STYLE_ASSIGNMENT (( #16 ) ) ;
#15 = STYLED_ITEM ( 'NONE', ( #14 ), #111 ) ;
#16 = SURFACE_STYLE_USAGE ( .BOTH. , #257 ) ;
#17 = PRESENTATION_LAYER_ASSIGNMENT (  '', '', ( #15 ) ) ;
#18 = PRESENTATION_LAYER_ASSIGNMENT (  '', '', ( #32 ) ) ;
#19 =( LENGTH_UNIT ( ) NAMED_UNIT ( * ) SI_UNIT ( .MILLI., .METRE. ) );
#20 = MECHANICAL_DESIGN_GEOMETRIC_PRESENTATION_REPRESENTATION (  '', ( #32 ), #22 ) ;
#21 =( NAMED_UNIT ( * ) PLANE_ANGLE_UNIT ( ) SI_UNIT ( $, .RADIAN. ) );
#22 =( GEOMETRIC_REPRESENTATION_CONTEXT ( 3 ) GLOBAL_UNCERTAINTY_ASSIGNED_CONTEXT ( ( #80 ) ) GLOBAL_UNIT_ASSIGNED_CONTEXT ( ( #19, #31, #33 ) ) REPRESENTATION_CONTEXT ( 'NONE', 'WORKASPACE' ) );
#23 = MECHANICAL_DESIGN_GEOMETRIC_PRESENTATION_REPRESENTATION (  '', ( #15 ), #318 ) ;
#24 = SURFACE_SIDE_STYLE ('',( #29 ) ) ;
#25 =( NAMED_UNIT ( * ) SI_UNIT ( $, .STERADIAN. ) SOLID_ANGLE_UNIT ( ) );
#26 = PRESENTATION_STYLE_ASSIGNMENT (( #28 ) ) ;
#27 = FILL_AREA_STYLE_COLOUR ( '', #311 ) ;
#28 = SURFACE_STYLE_USAGE ( .BOTH. , #24 ) ;
#29 = SURFACE_STYLE_FILL_AREA ( #34 ) ;
#30 =( LENGTH_UNIT ( ) NAMED_UNIT ( * ) SI_UNIT ( .MILLI., .METRE. ) );
#31 =( NAMED_UNIT ( * ) PLANE_ANGLE_UNIT ( ) SI_UNIT ( $, .RADIAN. ) );
#32 = STYLED_ITEM ( 'NONE', ( #26 ), #312 ) ;
#33 =( NAMED_UNIT ( * ) SI_UNIT ( $, .STERADIAN. ) SOLID_ANGLE_UNIT ( ) );
#34 = FILL_AREA_STYLE ('',( #27 ) ) ;
#35 = EDGE_CURVE ( 'NONE', #103, #59, #104, .T. ) ;
#36 = EDGE_CURVE ( 'NONE', #37, #106, #92, .T. ) ;
#37 = VERTEX_POINT ( 'NONE', #88 ) ;
#38 = ORIENTED_EDGE ( 'NONE', *, *, #42, .F. ) ;
#39 = ORIENTED_EDGE ( 'NONE', *, *, #36, .T. ) ;
#40 = ORIENTED_EDGE ( 'NONE', *, *, #108, .T. ) ;
#41 = ORIENTED_EDGE ( 'NONE', *, *, #68, .F. ) ;
#42 = EDGE_CURVE ( 'NONE', #106, #103, #49, .T. ) ;
#43 = ORIENTED_EDGE ( 'NONE', *, *, #42, .T. ) ;
#44 = ORIENTED_EDGE ( 'NONE', *, *, #72, .T. ) ;
#45 = DIRECTION ( 'NONE',  ( 1.000000000000000000, 0.0000000000000000000, 0.0000000000000000000 ) ) ;
#46 = DIRECTION ( 'NONE',  ( -0.0000000000000000000, -0.0000000000000000000, 1.000000000000000000 ) ) ;
#47 = CARTESIAN_POINT ( 'NONE',  ( 0.0000000000000000000, 0.0000000000000000000, -1.925863311535186400 ) ) ;
#48 = AXIS2_PLACEMENT_3D ( 'NONE', #47, #46, #45 ) ;
#49 = CIRCLE ( 'NONE', #48, 12.70000000000000300 ) ;
#50 = UNCERTAINTY_MEASURE_WITH_UNIT (LENGTH_MEASURE( 1.000000000000000100E-005 ), #170, 'distance_accuracy_value', 'NONE');
#51 = ORIENTED_EDGE ( 'NONE', *, *, #72, .F. ) ;
#52 = ADVANCED_FACE ( 'NONE', ( #119 ), #152, .F. ) ;
#53 = ORIENTED_EDGE ( 'NONE', *, *, #117, .F. ) ;
#54 = ORIENTED_EDGE ( 'NONE', *, *, #85, .F. ) ;
#55 = EDGE_LOOP ( 'NONE', ( #66, #65, #63, #38 ) ) ;
#56 = EDGE_LOOP ( 'NONE', ( #57, #109, #100, #70 ) ) ;
#57 = ORIENTED_EDGE ( 'NONE', *, *, #101, .T. ) ;
#58 = EDGE_CURVE ( 'NONE', #102, #60, #129, .T. ) ;
#59 = VERTEX_POINT ( 'NONE', #136 ) ;
#60 = VERTEX_POINT ( 'NONE', #135 ) ;
#61 = ORIENTED_EDGE ( 'NONE', *, *, #101, .F. ) ;
#62 = ORIENTED_EDGE ( 'NONE', *, *, #58, .F. ) ;
#63 = ORIENTED_EDGE ( 'NONE', *, *, #35, .F. ) ;
#64 = EDGE_LOOP ( 'NONE', ( #43, #44, #110, #61, #62, #107 ) ) ;
#65 = ORIENTED_EDGE ( 'NONE', *, *, #116, .T. ) ;
#66 = ORIENTED_EDGE ( 'NONE', *, *, #36, .F. ) ;
#67 = ADVANCED_FACE ( 'NONE', ( #160 ), #146, .T. ) ;
#68 = EDGE_CURVE ( 'NONE', #118, #86, #165, .T. ) ;
#69 = ORIENTED_EDGE ( 'NONE', *, *, #78, .T. ) ;
#70 = ORIENTED_EDGE ( 'NONE', *, *, #77, .F. ) ;
#71 = EDGE_LOOP ( 'NONE', ( #41, #69, #79, #87 ) ) ;
#72 = EDGE_CURVE ( 'NONE', #103, #82, #150, .T. ) ;
#73 = ADVANCED_FACE ( 'NONE', ( #180 ), #216, .F. ) ;
#74 = EDGE_LOOP ( 'NONE', ( #97, #54, #51, #76 ) ) ;
#75 = CLOSED_SHELL ( 'NONE', ( #73, #111, #67, #112, #83, #52 ) ) ;
#76 = ORIENTED_EDGE ( 'NONE', *, *, #35, .T. ) ;
#77 = EDGE_CURVE ( 'NONE', #60, #86, #205, .T. ) ;
#78 = EDGE_CURVE ( 'NONE', #118, #102, #204, .T. ) ;
#79 = ORIENTED_EDGE ( 'NONE', *, *, #58, .T. ) ;
#80 = UNCERTAINTY_MEASURE_WITH_UNIT (LENGTH_MEASURE( 1.000000000000000100E-005 ), #19, 'distance_accuracy_value', 'NONE');
#81 = MANIFOLD_SOLID_BREP ( 'NONE', #75 ) ;
#82 = VERTEX_POINT ( 'NONE', #215 ) ;
#83 = ADVANCED_FACE ( 'NONE', ( #236 ), #219, .T. ) ;
#84 = ORIENTED_EDGE ( 'NONE', *, *, #85, .T. ) ;
#85 = EDGE_CURVE ( 'NONE', #82, #37, #191, .T. ) ;
#86 = VERTEX_POINT ( 'NONE', #225 ) ;
#87 = ORIENTED_EDGE ( 'NONE', *, *, #77, .T. ) ;
#88 = CARTESIAN_POINT ( 'NONE',  ( -1.555250069354414300E-015, -12.69999999999996200, -1.925863311535179500 ) ) ;
#89 = DIRECTION ( 'NONE',  ( 1.000000000000000000, 0.0000000000000000000, 0.0000000000000000000 ) ) ;
#90 = DIRECTION ( 'NONE',  ( -0.0000000000000000000, -0.0000000000000000000, 1.000000000000000000 ) ) ;
#91 = AXIS2_PLACEMENT_3D ( 'NONE', #105, #90, #89 ) ;
#92 = CIRCLE ( 'NONE', #91, 12.70000000000000300 ) ;
#93 = DIRECTION ( 'NONE',  ( 0.0000000000000000000, 0.0000000000000000000, -1.000000000000000000 ) ) ;
#94 = DIRECTION ( 'NONE',  ( 1.000000000000000000, -0.0000000000000000000, 0.0000000000000000000 ) ) ;
#95 = CARTESIAN_POINT ( 'NONE',  ( 0.0000000000000000000, 0.0000000000000000000, -96.18413668846481800 ) ) ;
#96 = AXIS2_PLACEMENT_3D ( 'NONE', #95, #94, #93 ) ;
#97 = ORIENTED_EDGE ( 'NONE', *, *, #116, .F. ) ;
#98 = ORIENTED_EDGE ( 'NONE', *, *, #78, .F. ) ;
#99 = EDGE_LOOP ( 'NONE', ( #113, #84, #39, #40, #98, #53 ) ) ;
#100 = ORIENTED_EDGE ( 'NONE', *, *, #68, .T. ) ;
#101 = EDGE_CURVE ( 'NONE', #60, #114, #210, .T. ) ;
#102 = VERTEX_POINT ( 'NONE', #241 ) ;
#103 = VERTEX_POINT ( 'NONE', #240 ) ;
#104 = CIRCLE ( 'NONE', #96, 95.10999999999999900 ) ;
#105 = CARTESIAN_POINT ( 'NONE',  ( 0.0000000000000000000, 0.0000000000000000000, -1.925863311535186400 ) ) ;
#106 = VERTEX_POINT ( 'NONE', #239 ) ;
#107 = ORIENTED_EDGE ( 'NONE', *, *, #108, .F. ) ;
#108 = EDGE_CURVE ( 'NONE', #106, #102, #265, .T. ) ;
#109 = ORIENTED_EDGE ( 'NONE', *, *, #117, .T. ) ;
#110 = ORIENTED_EDGE ( 'NONE', *, *, #115, .T. ) ;
#111 = ADVANCED_FACE ( 'NONE', ( #261 ), #271, .T. ) ;
#112 = ADVANCED_FACE ( 'NONE', ( #277 ), #317, .T. ) ;
#113 = ORIENTED_EDGE ( 'NONE', *, *, #115, .F. ) ;
#114 = VERTEX_POINT ( 'NONE', #303 ) ;
#115 = EDGE_CURVE ( 'NONE', #82, #114, #268, .T. ) ;
#116 = EDGE_CURVE ( 'NONE', #37, #59, #274, .T. ) ;
#117 = EDGE_CURVE ( 'NONE', #114, #118, #316, .T. ) ;
#118 = VERTEX_POINT ( 'NONE', #279 ) ;
#119 = FACE_OUTER_BOUND ( 'NONE', #74, .T. ) ;
#120 = STYLED_ITEM ( 'NONE', ( #133 ), #52 ) ;
#121 = COLOUR_RGB ( '',0.9568627450980391500, 0.9490196078431372100, 0.9607843137254902200 ) ;
#122 =( NAMED_UNIT ( * ) PLANE_ANGLE_UNIT ( ) SI_UNIT ( $, .RADIAN. ) );
#123 = CARTESIAN_POINT ( 'NONE',  ( 0.0000000000000000000, 0.0000000000000000000, -96.18413668846481800 ) ) ;
#124 = DIRECTION ( 'NONE',  ( 0.0000000000000000000, 1.000000000000000000, 0.0000000000000000000 ) ) ;
#125 = DIRECTION ( 'NONE',  ( -1.000000000000000000, 0.0000000000000000000, 0.0000000000000000000 ) ) ;
#126 = CARTESIAN_POINT ( 'NONE',  ( 0.0000000000000000000, 0.0000000000000000000, -248.0741366884648200 ) ) ;
#127 = CARTESIAN_POINT ( 'NONE',  ( 0.0000000000000000000, 0.0000000000000000000, 1.603074926852592300 ) ) ;
#128 = AXIS2_PLACEMENT_3D ( 'NONE', #127, #138, #137 ) ;
#129 = CIRCLE ( 'NONE', #128, 12.69999999999999900 ) ;
#130 = SURFACE_STYLE_USAGE ( .BOTH. , #131 ) ;
#131 = SURFACE_SIDE_STYLE ('',( #168 ) ) ;
#132 =( NAMED_UNIT ( * ) SI_UNIT ( $, .STERADIAN. ) SOLID_ANGLE_UNIT ( ) );
#133 = PRESENTATION_STYLE_ASSIGNMENT (( #130 ) ) ;
#134 = FILL_AREA_STYLE_COLOUR ( '', #121 ) ;
#135 = CARTESIAN_POINT ( 'NONE',  ( 0.0000000000000000000, 12.70000000000016400, 1.603074926852598600 ) ) ;
#136 = CARTESIAN_POINT ( 'NONE',  ( 0.0000000000000000000, 5.823615515602314800E-015, -1.074136688464816200 ) ) ;
#137 = DIRECTION ( 'NONE',  ( 1.000000000000000000, 0.0000000000000000000, 0.0000000000000000000 ) ) ;
#138 = DIRECTION ( 'NONE',  ( -0.0000000000000000000, -0.0000000000000000000, 1.000000000000000000 ) ) ;
#139 = UNCERTAINTY_MEASURE_WITH_UNIT (LENGTH_MEASURE( 1.000000000000000100E-005 ), #182, 'distance_accuracy_value', 'NONE');
#140 = UNCERTAINTY_MEASURE_WITH_UNIT (LENGTH_MEASURE( 1.000000000000000100E-005 ), #181, 'distance_accuracy_value', 'NONE');
#141 =( NAMED_UNIT ( * ) SI_UNIT ( $, .STERADIAN. ) SOLID_ANGLE_UNIT ( ) );
#142 = FILL_AREA_STYLE ('',( #134 ) ) ;
#143 =( GEOMETRIC_REPRESENTATION_CONTEXT ( 3 ) GLOBAL_UNCERTAINTY_ASSIGNED_CONTEXT ( ( #140 ) ) GLOBAL_UNIT_ASSIGNED_CONTEXT ( ( #181, #183, #141 ) ) REPRESENTATION_CONTEXT ( 'NONE', 'WORKASPACE' ) );
#144 = MECHANICAL_DESIGN_GEOMETRIC_PRESENTATION_REPRESENTATION (  '', ( #120 ), #190 ) ;
#145 = AXIS2_PLACEMENT_3D ( 'NONE', #126, #125, #124 ) ;
#146 = SPHERICAL_SURFACE ( 'NONE', #145, 250.0000000000000000 ) ;
#147 = DIRECTION ( 'NONE',  ( 1.000000000000000000, 0.0000000000000000000, 0.0000000000000000000 ) ) ;
#148 = DIRECTION ( 'NONE',  ( -0.0000000000000000000, -0.0000000000000000000, 1.000000000000000000 ) ) ;
#149 = AXIS2_PLACEMENT_3D ( 'NONE', #166, #148, #147 ) ;
#150 = CIRCLE ( 'NONE', #149, 12.70000000000000300 ) ;
#151 = FILL_AREA_STYLE_COLOUR ( '', #179 ) ;
#152 = SPHERICAL_SURFACE ( 'NONE', #154, 95.10999999999999900 ) ;
#153 = DIRECTION ( 'NONE',  ( 0.0000000000000000000, 1.000000000000000000, 0.0000000000000000000 ) ) ;
#154 = AXIS2_PLACEMENT_3D ( 'NONE', #123, #167, #153 ) ;
#155 = SURFACE_SIDE_STYLE ('',( #156 ) ) ;
#156 = SURFACE_STYLE_FILL_AREA ( #157 ) ;
#157 = FILL_AREA_STYLE ('',( #158 ) ) ;
#158 = FILL_AREA_STYLE_COLOUR ( '', #159 ) ;
#159 = COLOUR_RGB ( '',0.9568627450980391500, 0.9490196078431372100, 0.9607843137254902200 ) ;
#160 = FACE_OUTER_BOUND ( 'NONE', #56, .T. ) ;
#161 = DIRECTION ( 'NONE',  ( -1.224606353822377300E-016, -1.000000000000000000, 0.0000000000000000000 ) ) ;
#162 = DIRECTION ( 'NONE',  ( -1.000000000000000000, 1.224606353822377300E-016, 0.0000000000000000000 ) ) ;
#163 = CARTESIAN_POINT ( 'NONE',  ( 0.0000000000000000000, 0.0000000000000000000, -248.0741366884648200 ) ) ;
#164 = AXIS2_PLACEMENT_3D ( 'NONE', #163, #162, #161 ) ;
#165 = CIRCLE ( 'NONE', #164, 250.0000000000000000 ) ;
#166 = CARTESIAN_POINT ( 'NONE',  ( 0.0000000000000000000, 0.0000000000000000000, -1.925863311535186400 ) ) ;
#167 = DIRECTION ( 'NONE',  ( -1.000000000000000000, 0.0000000000000000000, 0.0000000000000000000 ) ) ;
#168 = SURFACE_STYLE_FILL_AREA ( #142 ) ;
#169 =( NAMED_UNIT ( * ) PLANE_ANGLE_UNIT ( ) SI_UNIT ( $, .RADIAN. ) );
#170 =( LENGTH_UNIT ( ) NAMED_UNIT ( * ) SI_UNIT ( .MILLI., .METRE. ) );
#171 = MECHANICAL_DESIGN_GEOMETRIC_PRESENTATION_REPRESENTATION (  '', ( #173 ), #255 ) ;
#172 = PRESENTATION_LAYER_ASSIGNMENT (  '', '', ( #173 ) ) ;
#173 = STYLED_ITEM ( 'NONE', ( #174 ), #73 ) ;
#174 = PRESENTATION_STYLE_ASSIGNMENT (( #175 ) ) ;
#175 = SURFACE_STYLE_USAGE ( .BOTH. , #176 ) ;
#176 = SURFACE_SIDE_STYLE ('',( #177 ) ) ;
#177 = SURFACE_STYLE_FILL_AREA ( #178 ) ;
#178 = FILL_AREA_STYLE ('',( #151 ) ) ;
#179 = COLOUR_RGB ( '',0.9568627450980391500, 0.9490196078431372100, 0.9607843137254902200 ) ;
#180 = FACE_OUTER_BOUND ( 'NONE', #55, .T. ) ;
#181 =( LENGTH_UNIT ( ) NAMED_UNIT ( * ) SI_UNIT ( .MILLI., .METRE. ) );
#182 =( LENGTH_UNIT ( ) NAMED_UNIT ( * ) SI_UNIT ( .MILLI., .METRE. ) );
#183 =( NAMED_UNIT ( * ) PLANE_ANGLE_UNIT ( ) SI_UNIT ( $, .RADIAN. ) );
#184 = PRESENTATION_LAYER_ASSIGNMENT (  '', '', ( #120 ) ) ;
#185 = MECHANICAL_DESIGN_GEOMETRIC_PRESENTATION_REPRESENTATION (  '', ( #187 ), #143 ) ;
#186 = PRESENTATION_LAYER_ASSIGNMENT (  '', '', ( #187 ) ) ;
#187 = STYLED_ITEM ( 'NONE', ( #188 ), #67 ) ;
#188 = PRESENTATION_STYLE_ASSIGNMENT (( #189 ) ) ;
#189 = SURFACE_STYLE_USAGE ( .BOTH. , #155 ) ;
#190 =( GEOMETRIC_REPRESENTATION_CONTEXT ( 3 ) GLOBAL_UNCERTAINTY_ASSIGNED_CONTEXT ( ( #139 ) ) GLOBAL_UNIT_ASSIGNED_CONTEXT ( ( #182, #122, #132 ) ) REPRESENTATION_CONTEXT ( 'NONE', 'WORKASPACE' ) );
#191 = CIRCLE ( 'NONE', #229, 12.70000000000000300 ) ;
#192 = DIRECTION ( 'NONE',  ( 1.000000000000000000, 0.0000000000000000000, 0.0000000000000000000 ) ) ;
#193 = DIRECTION ( 'NONE',  ( -0.0000000000000000000, -0.0000000000000000000, 1.000000000000000000 ) ) ;
#194 = CARTESIAN_POINT ( 'NONE',  ( 0.0000000000000000000, 0.0000000000000000000, 9.330967066376240700 ) ) ;
#195 = SURFACE_STYLE_FILL_AREA ( #199 ) ;
#196 = DIRECTION ( 'NONE',  ( 0.0000000000000000000, 1.000000000000000000, 0.0000000000000000000 ) ) ;
#197 = UNCERTAINTY_MEASURE_WITH_UNIT (LENGTH_MEASURE( 1.000000000000000100E-005 ), #221, 'distance_accuracy_value', 'NONE');
#198 =( NAMED_UNIT ( * ) SI_UNIT ( $, .STERADIAN. ) SOLID_ANGLE_UNIT ( ) );
#199 = FILL_AREA_STYLE ('',( #230 ) ) ;
#200 = DIRECTION ( 'NONE',  ( -1.000000000000000000, 0.0000000000000000000, 0.0000000000000000000 ) ) ;
#201 =( NAMED_UNIT ( * ) PLANE_ANGLE_UNIT ( ) SI_UNIT ( $, .RADIAN. ) );
#202 = CARTESIAN_POINT ( 'NONE',  ( 0.0000000000000000000, 0.0000000000000000000, 1.603074926852592300 ) ) ;
#203 = UNCERTAINTY_MEASURE_WITH_UNIT (LENGTH_MEASURE( 1.000000000000000100E-005 ), #224, 'distance_accuracy_value', 'NONE');
#204 = CIRCLE ( 'NONE', #251, 12.69999999999999900 ) ;
#205 = CIRCLE ( 'NONE', #242, 249.9999999999999700 ) ;
#206 = DIRECTION ( 'NONE',  ( 1.000000000000000000, 0.0000000000000000000, 0.0000000000000000000 ) ) ;
#207 = DIRECTION ( 'NONE',  ( -0.0000000000000000000, -0.0000000000000000000, 1.000000000000000000 ) ) ;
#208 = CARTESIAN_POINT ( 'NONE',  ( 0.0000000000000000000, 0.0000000000000000000, 1.603074926852592300 ) ) ;
#209 = AXIS2_PLACEMENT_3D ( 'NONE', #208, #207, #206 ) ;
#210 = CIRCLE ( 'NONE', #209, 12.69999999999999900 ) ;
#211 = DIRECTION ( 'NONE',  ( 1.000000000000000000, 0.0000000000000000000, 0.0000000000000000000 ) ) ;
#212 = AXIS2_PLACEMENT_3D ( 'NONE', #194, #193, #192 ) ;
#213 =( GEOMETRIC_REPRESENTATION_CONTEXT ( 3 ) GLOBAL_UNCERTAINTY_ASSIGNED_CONTEXT ( ( #203 ) ) GLOBAL_UNIT_ASSIGNED_CONTEXT ( ( #224, #223, #254 ) ) REPRESENTATION_CONTEXT ( 'NONE', 'WORKASPACE' ) );
#214 = FILL_AREA_STYLE_COLOUR ( '', #235 ) ;
#215 = CARTESIAN_POINT ( 'NONE',  ( -12.70000000000000500, 1.555250069354419700E-015, -1.925863311535186400 ) ) ;
#216 = SPHERICAL_SURFACE ( 'NONE', #246, 95.10999999999999900 ) ;
#217 = SURFACE_STYLE_USAGE ( .BOTH. , #218 ) ;
#218 = SURFACE_SIDE_STYLE ('',( #195 ) ) ;
#219 = CYLINDRICAL_SURFACE ( 'NONE', #212, 12.70000000000000100 ) ;
#220 = DIRECTION ( 'NONE',  ( -0.0000000000000000000, -0.0000000000000000000, 1.000000000000000000 ) ) ;
#221 =( LENGTH_UNIT ( ) NAMED_UNIT ( * ) SI_UNIT ( .MILLI., .METRE. ) );
#222 = MECHANICAL_DESIGN_GEOMETRIC_PRESENTATION_REPRESENTATION (  '', ( #244 ), #267 ) ;
#223 =( NAMED_UNIT ( * ) PLANE_ANGLE_UNIT ( ) SI_UNIT ( $, .RADIAN. ) );
#224 =( LENGTH_UNIT ( ) NAMED_UNIT ( * ) SI_UNIT ( .MILLI., .METRE. ) );
#225 = CARTESIAN_POINT ( 'NONE',  ( 0.0000000000000000000, 1.530757942277971600E-014, 1.925863311535186400 ) ) ;
#226 = DIRECTION ( 'NONE',  ( 1.000000000000000000, 0.0000000000000000000, 0.0000000000000000000 ) ) ;
#227 = DIRECTION ( 'NONE',  ( -0.0000000000000000000, -0.0000000000000000000, 1.000000000000000000 ) ) ;
#228 = CARTESIAN_POINT ( 'NONE',  ( 0.0000000000000000000, 0.0000000000000000000, -1.925863311535186400 ) ) ;
#229 = AXIS2_PLACEMENT_3D ( 'NONE', #228, #227, #226 ) ;
#230 = FILL_AREA_STYLE_COLOUR ( '', #252 ) ;
#231 = SURFACE_STYLE_USAGE ( .BOTH. , #232 ) ;
#232 = SURFACE_SIDE_STYLE ('',( #233 ) ) ;
#233 = SURFACE_STYLE_FILL_AREA ( #234 ) ;
#234 = FILL_AREA_STYLE ('',( #214 ) ) ;
#235 = COLOUR_RGB ( '',0.9568627450980391500, 0.9490196078431372100, 0.9607843137254902200 ) ;
#236 = FACE_OUTER_BOUND ( 'NONE', #99, .T. ) ;
#237 = DIRECTION ( 'NONE',  ( 1.000000000000000000, 0.0000000000000000000, 0.0000000000000000000 ) ) ;
#238 = CARTESIAN_POINT ( 'NONE',  ( 0.0000000000000000000, 0.0000000000000000000, -248.0741366884648200 ) ) ;
#239 = CARTESIAN_POINT ( 'NONE',  ( 12.70000000000000300, 0.0000000000000000000, -1.925863311535186400 ) ) ;
#240 = CARTESIAN_POINT ( 'NONE',  ( 0.0000000000000000000, 12.69999999999996200, -1.925863311535179500 ) ) ;
#241 = CARTESIAN_POINT ( 'NONE',  ( 12.69999999999999900, 0.0000000000000000000, 1.603074926852592300 ) ) ;
#242 = AXIS2_PLACEMENT_3D ( 'NONE', #238, #237, #253 ) ;
#243 = PRESENTATION_LAYER_ASSIGNMENT (  '', '', ( #244 ) ) ;
#244 = STYLED_ITEM ( 'NONE', ( #245 ), #81 ) ;
#245 = PRESENTATION_STYLE_ASSIGNMENT (( #217 ) ) ;
#246 = AXIS2_PLACEMENT_3D ( 'NONE', #256, #200, #196 ) ;
#247 = MECHANICAL_DESIGN_GEOMETRIC_PRESENTATION_REPRESENTATION (  '', ( #249 ), #213 ) ;
#248 = PRESENTATION_LAYER_ASSIGNMENT (  '', '', ( #249 ) ) ;
#249 = STYLED_ITEM ( 'NONE', ( #250 ), #83 ) ;
#250 = PRESENTATION_STYLE_ASSIGNMENT (( #231 ) ) ;
#251 = AXIS2_PLACEMENT_3D ( 'NONE', #202, #220, #211 ) ;
#252 = COLOUR_RGB ( '',0.7960784313725489700, 0.8235294117647058400, 0.9372549019607843100 ) ;
#253 = DIRECTION ( 'NONE',  ( 0.0000000000000000000, 0.0000000000000000000, -1.000000000000000000 ) ) ;
#254 =( NAMED_UNIT ( * ) SI_UNIT ( $, .STERADIAN. ) SOLID_ANGLE_UNIT ( ) );
#255 =( GEOMETRIC_REPRESENTATION_CONTEXT ( 3 ) GLOBAL_UNCERTAINTY_ASSIGNED_CONTEXT ( ( #50 ) ) GLOBAL_UNIT_ASSIGNED_CONTEXT ( ( #170, #169, #13 ) ) REPRESENTATION_CONTEXT ( 'NONE', 'WORKASPACE' ) );
#256 = CARTESIAN_POINT ( 'NONE',  ( 0.0000000000000000000, 0.0000000000000000000, -96.18413668846481800 ) ) ;
#257 = SURFACE_SIDE_STYLE ('',( #258 ) ) ;
#258 = SURFACE_STYLE_FILL_AREA ( #259 ) ;
#259 = FILL_AREA_STYLE ('',( #266 ) ) ;
#260 = COLOUR_RGB ( '',0.9568627450980391500, 0.9490196078431372100, 0.9607843137254902200 ) ;
#261 = FACE_OUTER_BOUND ( 'NONE', #64, .T. ) ;
#262 = DIRECTION ( 'NONE',  ( -0.0000000000000000000, -0.0000000000000000000, 1.000000000000000000 ) ) ;
#263 = VECTOR ( 'NONE', #262, 1000.000000000000000 ) ;
#264 = CARTESIAN_POINT ( 'NONE',  ( 12.70000000000000100, 0.0000000000000000000, 9.330967066376240700 ) ) ;
#265 = LINE ( 'NONE', #264, #263 ) ;
#266 = FILL_AREA_STYLE_COLOUR ( '', #260 ) ;
#267 =( GEOMETRIC_REPRESENTATION_CONTEXT ( 3 ) GLOBAL_UNCERTAINTY_ASSIGNED_CONTEXT ( ( #197 ) ) GLOBAL_UNIT_ASSIGNED_CONTEXT ( ( #221, #201, #198 ) ) REPRESENTATION_CONTEXT ( 'NONE', 'WORKASPACE' ) );
#268 = LINE ( 'NONE', #297, #296 ) ;
#269 = CARTESIAN_POINT ( 'NONE',  ( 0.0000000000000000000, 0.0000000000000000000, -248.0741366884648200 ) ) ;
#270 = AXIS2_PLACEMENT_3D ( 'NONE', #269, #305, #304 ) ;
#271 = CYLINDRICAL_SURFACE ( 'NONE', #272, 12.70000000000000100 ) ;
#272 = AXIS2_PLACEMENT_3D ( 'NONE', #290, #292, #278 ) ;
#273 = AXIS2_PLACEMENT_3D ( 'NONE', #288, #287, #286 ) ;
#274 = CIRCLE ( 'NONE', #273, 95.10999999999999900 ) ;
#275 = CARTESIAN_POINT ( 'NONE',  ( 0.0000000000000000000, 0.0000000000000000000, 1.603074926852592300 ) ) ;
#276 = COLOUR_RGB ( '',0.9568627450980391500, 0.9490196078431372100, 0.9607843137254902200 ) ;
#277 = FACE_OUTER_BOUND ( 'NONE', #71, .T. ) ;
#278 = DIRECTION ( 'NONE',  ( 1.000000000000000000, 0.0000000000000000000, 0.0000000000000000000 ) ) ;
#279 = CARTESIAN_POINT ( 'NONE',  ( -1.555250069354439400E-015, -12.70000000000016400, 1.603074926852598600 ) ) ;
#280 = DIRECTION ( 'NONE',  ( 1.000000000000000000, 0.0000000000000000000, 0.0000000000000000000 ) ) ;
#281 = SURFACE_STYLE_FILL_AREA ( #282 ) ;
#282 = FILL_AREA_STYLE ('',( #283 ) ) ;
#283 = FILL_AREA_STYLE_COLOUR ( '', #276 ) ;
#284 =( LENGTH_UNIT ( ) NAMED_UNIT ( * ) SI_UNIT ( .MILLI., .METRE. ) );
#285 = UNCERTAINTY_MEASURE_WITH_UNIT (LENGTH_MEASURE( 1.000000000000000100E-005 ), #30, 'distance_accuracy_value', 'NONE');
#286 = DIRECTION ( 'NONE',  ( -1.224606353822377300E-016, -1.000000000000000000, 0.0000000000000000000 ) ) ;
#287 = DIRECTION ( 'NONE',  ( -1.000000000000000000, 1.224606353822377300E-016, 0.0000000000000000000 ) ) ;
#288 = CARTESIAN_POINT ( 'NONE',  ( 0.0000000000000000000, 0.0000000000000000000, -96.18413668846481800 ) ) ;
#289 =( GEOMETRIC_REPRESENTATION_CONTEXT ( 3 ) GLOBAL_UNCERTAINTY_ASSIGNED_CONTEXT ( ( #306 ) ) GLOBAL_UNIT_ASSIGNED_CONTEXT ( ( #284, #300, #291 ) ) REPRESENTATION_CONTEXT ( 'NONE', 'WORKASPACE' ) );
#290 = CARTESIAN_POINT ( 'NONE',  ( 0.0000000000000000000, 0.0000000000000000000, 9.330967066376240700 ) ) ;
#291 =( NAMED_UNIT ( * ) SI_UNIT ( $, .STERADIAN. ) SOLID_ANGLE_UNIT ( ) );
#292 = DIRECTION ( 'NONE',  ( -0.0000000000000000000, -0.0000000000000000000, 1.000000000000000000 ) ) ;
#293 =( NAMED_UNIT ( * ) PLANE_ANGLE_UNIT ( ) SI_UNIT ( $, .RADIAN. ) );
#294 =( LENGTH_UNIT ( ) NAMED_UNIT ( * ) SI_UNIT ( .MILLI., .METRE. ) );
#295 = DIRECTION ( 'NONE',  ( -0.0000000000000000000, -0.0000000000000000000, 1.000000000000000000 ) ) ;
#296 = VECTOR ( 'NONE', #295, 1000.000000000000000 ) ;
#297 = CARTESIAN_POINT ( 'NONE',  ( -12.70000000000000100, 1.555250069354419300E-015, 9.330967066376240700 ) ) ;
#298 = MECHANICAL_DESIGN_GEOMETRIC_PRESENTATION_REPRESENTATION (  '', ( #307 ), #289 ) ;
#299 = PRESENTATION_LAYER_ASSIGNMENT (  '', '', ( #307 ) ) ;
#300 =( NAMED_UNIT ( * ) PLANE_ANGLE_UNIT ( ) SI_UNIT ( $, .RADIAN. ) );
#301 = UNCERTAINTY_MEASURE_WITH_UNIT (LENGTH_MEASURE( 1.000000000000000100E-005 ), #294, 'distance_accuracy_value', 'NONE');
#302 =( NAMED_UNIT ( * ) SI_UNIT ( $, .STERADIAN. ) SOLID_ANGLE_UNIT ( ) );
#303 = CARTESIAN_POINT ( 'NONE',  ( -12.69999999999999900, 1.555250069354419300E-015, 1.603074926852592300 ) ) ;
#304 = DIRECTION ( 'NONE',  ( 0.0000000000000000000, 1.000000000000000000, 0.0000000000000000000 ) ) ;
#305 = DIRECTION ( 'NONE',  ( -1.000000000000000000, 0.0000000000000000000, 0.0000000000000000000 ) ) ;
#306 = UNCERTAINTY_MEASURE_WITH_UNIT (LENGTH_MEASURE( 1.000000000000000100E-005 ), #284, 'distance_accuracy_value', 'NONE');
#307 = STYLED_ITEM ( 'NONE', ( #308 ), #112 ) ;
#308 = PRESENTATION_STYLE_ASSIGNMENT (( #309 ) ) ;
#309 = SURFACE_STYLE_USAGE ( .BOTH. , #310 ) ;
#310 = SURFACE_SIDE_STYLE ('',( #281 ) ) ;
#311 = COLOUR_RGB ( '',0.7960784313725489700, 0.8235294117647058400, 0.9372549019607843100 ) ;
#312 = ADVANCED_BREP_SHAPE_REPRESENTATION ( '4874-E0W', ( #81, #322 ), #313 ) ;
#313 =( GEOMETRIC_REPRESENTATION_CONTEXT ( 3 ) GLOBAL_UNCERTAINTY_ASSIGNED_CONTEXT ( ( #301 ) ) GLOBAL_UNIT_ASSIGNED_CONTEXT ( ( #294, #293, #302 ) ) REPRESENTATION_CONTEXT ( 'NONE', 'WORKASPACE' ) );
#314 = DIRECTION ( 'NONE',  ( -0.0000000000000000000, -0.0000000000000000000, 1.000000000000000000 ) ) ;
#315 = AXIS2_PLACEMENT_3D ( 'NONE', #275, #314, #280 ) ;
#316 = CIRCLE ( 'NONE', #315, 12.69999999999999900 ) ;
#317 = SPHERICAL_SURFACE ( 'NONE', #270, 250.0000000000000000 ) ;
#318 =( GEOMETRIC_REPRESENTATION_CONTEXT ( 3 ) GLOBAL_UNCERTAINTY_ASSIGNED_CONTEXT ( ( #285 ) ) GLOBAL_UNIT_ASSIGNED_CONTEXT ( ( #30, #21, #25 ) ) REPRESENTATION_CONTEXT ( 'NONE', 'WORKASPACE' ) );
#319 = CARTESIAN_POINT ( 'NONE',  ( 0.0000000000000000000, 0.0000000000000000000, 0.0000000000000000000 ) ) ;
#320 = DIRECTION ( 'NONE',  ( 1.000000000000000000, 0.0000000000000000000, 0.0000000000000000000 ) ) ;
#321 = DIRECTION ( 'NONE',  ( 0.0000000000000000000, 0.0000000000000000000, 1.000000000000000000 ) ) ;
#322 = AXIS2_PLACEMENT_3D ( 'NONE', #319, #321, #320 ) ;
ENDSEC;
END-ISO-10303-21;
