ISO-10303-21;
HEADER;
FILE_DESCRIPTION (( 'STEP AP203' ),
    '1' );
FILE_NAME ('Web Model 37688_37716.step',
    '2018-08-03T18:40:42',
    ( '' ),
    ( '' ),
    'SwSTEP 2.0',
    'SolidWorks 2016',
    '' );
FILE_SCHEMA (( 'CONFIG_CONTROL_DESIGN' ));
ENDSEC;

DATA;
#1 = COORDINATED_UNIVERSAL_TIME_OFFSET ( 5, 0, .BEHIND. ) ;
#2 = CARTESIAN_POINT ( 'NONE',  ( 0.0000000000000000000, 0.0000000000000000000, 3.174999999999999800 ) ) ;
#3 = PERSON_AND_ORGANIZATION_ROLE ( 'classification_officer' ) ;
#4 = SECURITY_CLASSIFICATION_LEVEL ( 'unclassified' ) ;
#5 = PRODUCT_DEFINITION_SHAPE ( 'NONE', 'NONE',  #105 ) ;
#6 = APPROVAL_ROLE ( '' ) ;
#7 = APPROVAL_PERSON_ORGANIZATION ( #109, #31, #62 ) ;
#8 = CIRCLE ( 'NONE', #56, 6.349999999999999600 ) ;
#9 = PERSON_AND_ORGANIZATION ( #113, #91 ) ;
#10 = DIRECTION ( 'NONE',  ( 1.000000000000000000, 0.0000000000000000000, 0.0000000000000000000 ) ) ;
#11 = ADVANCED_FACE ( 'NONE', ( #99 ), #60, .T. ) ;
#12 = APPROVAL ( #174, 'UNSPECIFIED' ) ;
#13 = PERSON_AND_ORGANIZATION ( #113, #91 ) ;
#14 = DIRECTION ( 'NONE',  ( -0.0000000000000000000, -0.0000000000000000000, -1.000000000000000000 ) ) ;
#15 = DIRECTION ( 'NONE',  ( 0.0000000000000000000, 0.0000000000000000000, 1.000000000000000000 ) ) ;
#16 = LOCAL_TIME ( 14, 40, 42.00000000000000000, #173 ) ;
#17 = DIRECTION ( 'NONE',  ( 0.0000000000000000000, 0.0000000000000000000, 1.000000000000000000 ) ) ;
#18 = APPROVAL_PERSON_ORGANIZATION ( #55, #12, #33 ) ;
#19 = CARTESIAN_POINT ( 'NONE',  ( -6.349999999999999600, 0.0000000000000000000, -3.174999999999999800 ) ) ;
#20 = CARTESIAN_POINT ( 'NONE',  ( 0.0000000000000000000, 0.0000000000000000000, 0.0000000000000000000 ) ) ;
#21 = DESIGN_CONTEXT ( 'detailed design', #49, 'design' ) ;
#22 = VERTEX_POINT ( 'NONE', #67 ) ;
#23 = APPROVAL_STATUS ( 'not_yet_approved' ) ;
#24 = CC_DESIGN_DATE_AND_TIME_ASSIGNMENT ( #58, #73, ( #114 ) ) ;
#25 = APPROVAL_DATE_TIME ( #116, #31 ) ;
#26 = ORIENTED_EDGE ( 'NONE', *, *, #155, .T. ) ;
#27 = EDGE_CURVE ( 'NONE', #154, #22, #156, .T. ) ;
#28 = EDGE_LOOP ( 'NONE', ( #89, #138 ) ) ;
#29 = ADVANCED_FACE ( 'NONE', ( #40 ), #32, .F. ) ;
#30 = AXIS2_PLACEMENT_3D ( 'NONE', #2, #143, #160 ) ;
#31 = APPROVAL ( #23, 'UNSPECIFIED' ) ;
#32 = PLANE ( 'NONE',  #111 ) ;
#33 = APPROVAL_ROLE ( '' ) ;
#34 = ORIENTED_EDGE ( 'NONE', *, *, #76, .F. ) ;
#35 = EDGE_CURVE ( 'NONE', #154, #38, #100, .T. ) ;
#36 = MECHANICAL_CONTEXT ( 'NONE', #68, 'mechanical' ) ;
#37 = DIRECTION ( 'NONE',  ( -0.0000000000000000000, -0.0000000000000000000, -1.000000000000000000 ) ) ;
#38 = VERTEX_POINT ( 'NONE', #121 ) ;
#39 = PRODUCT_DEFINITION_FORMATION_WITH_SPECIFIED_SOURCE ( 'ANY', '', #153, .NOT_KNOWN. ) ;
#40 = FACE_OUTER_BOUND ( 'NONE', #162, .T. ) ;
#41 = PERSON_AND_ORGANIZATION ( #113, #91 ) ;
#42 = ORIENTED_EDGE ( 'NONE', *, *, #35, .T. ) ;
#43 = CC_DESIGN_DATE_AND_TIME_ASSIGNMENT ( #102, #98, ( #105 ) ) ;
#44 = CC_DESIGN_PERSON_AND_ORGANIZATION_ASSIGNMENT ( #41, #149, ( #39 ) ) ;
#45 = CARTESIAN_POINT ( 'NONE',  ( 0.0000000000000000000, 0.0000000000000000000, 3.174999999999999800 ) ) ;
#46 = DIRECTION ( 'NONE',  ( 0.0000000000000000000, 0.0000000000000000000, 1.000000000000000000 ) ) ;
#47 = VECTOR ( 'NONE', #37, 1000.000000000000000 ) ;
#48 = CARTESIAN_POINT ( 'NONE',  ( 0.0000000000000000000, 0.0000000000000000000, -3.174999999999999800 ) ) ;
#49 = APPLICATION_CONTEXT ( 'configuration controlled 3d designs of mechanical parts and assemblies' ) ;
#50 = LOCAL_TIME ( 14, 40, 42.00000000000000000, #148 ) ;
#51 = CC_DESIGN_SECURITY_CLASSIFICATION ( #114, ( #39 ) ) ;
#52 = UNCERTAINTY_MEASURE_WITH_UNIT (LENGTH_MEASURE( 1.000000000000000100E-005 ), #144, 'distance_accuracy_value', 'NONE');
#53 = LOCAL_TIME ( 14, 40, 42.00000000000000000, #93 ) ;
#54 = CARTESIAN_POINT ( 'NONE',  ( 6.349999999999999600, 7.776507174585692200E-016, 3.174999999999999800 ) ) ;
#55 = PERSON_AND_ORGANIZATION ( #113, #91 ) ;
#56 = AXIS2_PLACEMENT_3D ( 'NONE', #84, #175, #59 ) ;
#57 = DIRECTION ( 'NONE',  ( -1.000000000000000000, 0.0000000000000000000, 0.0000000000000000000 ) ) ;
#58 = DATE_AND_TIME ( #80, #104 ) ;
#59 = DIRECTION ( 'NONE',  ( 1.000000000000000000, 0.0000000000000000000, 0.0000000000000000000 ) ) ;
#60 = CYLINDRICAL_SURFACE ( 'NONE', #112, 6.349999999999999600 ) ;
#61 = PLANE ( 'NONE',  #101 ) ;
#62 = APPROVAL_ROLE ( '' ) ;
#63 = FACE_OUTER_BOUND ( 'NONE', #170, .T. ) ;
#64 = CC_DESIGN_PERSON_AND_ORGANIZATION_ASSIGNMENT ( #9, #134, ( #105 ) ) ;
#65 = PERSON_AND_ORGANIZATION ( #113, #91 ) ;
#66 =( GEOMETRIC_REPRESENTATION_CONTEXT ( 3 ) GLOBAL_UNCERTAINTY_ASSIGNED_CONTEXT ( ( #52 ) ) GLOBAL_UNIT_ASSIGNED_CONTEXT ( ( #144, #72, #82 ) ) REPRESENTATION_CONTEXT ( 'NONE', 'WORKASPACE' ) );
#67 = CARTESIAN_POINT ( 'NONE',  ( -6.349999999999999600, 0.0000000000000000000, 3.174999999999999800 ) ) ;
#68 = APPLICATION_CONTEXT ( 'configuration controlled 3d designs of mechanical parts and assemblies' ) ;
#69 = CIRCLE ( 'NONE', #150, 6.349999999999999600 ) ;
#70 = EDGE_CURVE ( 'NONE', #22, #78, #85, .T. ) ;
#71 = DIRECTION ( 'NONE',  ( 0.0000000000000000000, 0.0000000000000000000, 1.000000000000000000 ) ) ;
#72 =( NAMED_UNIT ( * ) PLANE_ANGLE_UNIT ( ) SI_UNIT ( $, .RADIAN. ) );
#73 = DATE_TIME_ROLE ( 'classification_date' ) ;
#74 = ADVANCED_BREP_SHAPE_REPRESENTATION ( 'Web Model 37688_37716', ( #132, #147 ), #66 ) ;
#75 = PRODUCT_RELATED_PRODUCT_CATEGORY ( 'detail', '', ( #153 ) ) ;
#76 = EDGE_CURVE ( 'NONE', #38, #78, #165, .T. ) ;
#77 = CALENDAR_DATE ( 2018, 3, 8 ) ;
#78 = VERTEX_POINT ( 'NONE', #19 ) ;
#79 = ADVANCED_FACE ( 'NONE', ( #63 ), #127, .T. ) ;
#80 = CALENDAR_DATE ( 2018, 3, 8 ) ;
#81 = APPLICATION_PROTOCOL_DEFINITION ( 'international standard', 'config_control_design', 1994, #49 ) ;
#82 =( NAMED_UNIT ( * ) SI_UNIT ( $, .STERADIAN. ) SOLID_ANGLE_UNIT ( ) );
#83 = SHAPE_DEFINITION_REPRESENTATION ( #5, #74 ) ;
#84 = CARTESIAN_POINT ( 'NONE',  ( 0.0000000000000000000, 0.0000000000000000000, -3.174999999999999800 ) ) ;
#85 = LINE ( 'NONE', #171, #47 ) ;
#86 = APPROVAL_STATUS ( 'not_yet_approved' ) ;
#87 = EDGE_CURVE ( 'NONE', #22, #154, #69, .T. ) ;
#88 = CALENDAR_DATE ( 2018, 3, 8 ) ;
#89 = ORIENTED_EDGE ( 'NONE', *, *, #87, .T. ) ;
#90 = COORDINATED_UNIVERSAL_TIME_OFFSET ( 5, 0, .BEHIND. ) ;
#91 = ORGANIZATION ( 'UNSPECIFIED', 'UNSPECIFIED', '' ) ;
#92 = DIRECTION ( 'NONE',  ( 0.0000000000000000000, 0.0000000000000000000, 1.000000000000000000 ) ) ;
#93 = COORDINATED_UNIVERSAL_TIME_OFFSET ( 5, 0, .BEHIND. ) ;
#94 = CARTESIAN_POINT ( 'NONE',  ( 0.0000000000000000000, 0.0000000000000000000, 3.174999999999999800 ) ) ;
#95 = VECTOR ( 'NONE', #157, 1000.000000000000000 ) ;
#96 = CARTESIAN_POINT ( 'NONE',  ( 0.0000000000000000000, 0.0000000000000000000, 3.174999999999999800 ) ) ;
#97 = CARTESIAN_POINT ( 'NONE',  ( 6.349999999999999600, 7.776507174585692200E-016, 3.174999999999999800 ) ) ;
#98 = DATE_TIME_ROLE ( 'creation_date' ) ;
#99 = FACE_OUTER_BOUND ( 'NONE', #172, .T. ) ;
#100 = LINE ( 'NONE', #54, #95 ) ;
#101 = AXIS2_PLACEMENT_3D ( 'NONE', #96, #71, #163 ) ;
#102 = DATE_AND_TIME ( #88, #151 ) ;
#103 = ORIENTED_EDGE ( 'NONE', *, *, #70, .T. ) ;
#104 = LOCAL_TIME ( 14, 40, 42.00000000000000000, #90 ) ;
#105 = PRODUCT_DEFINITION ( 'UNKNOWN', '', #39, #21 ) ;
#106 = DIRECTION ( 'NONE',  ( 1.000000000000000000, 0.0000000000000000000, 0.0000000000000000000 ) ) ;
#107 = ORIENTED_EDGE ( 'NONE', *, *, #35, .F. ) ;
#108 = APPROVAL ( #86, 'UNSPECIFIED' ) ;
#109 = PERSON_AND_ORGANIZATION ( #113, #91 ) ;
#110 = APPROVAL_DATE_TIME ( #117, #12 ) ;
#111 = AXIS2_PLACEMENT_3D ( 'NONE', #118, #92, #141 ) ;
#112 = AXIS2_PLACEMENT_3D ( 'NONE', #94, #14, #57 ) ;
#113 = PERSON ( 'UNSPECIFIED', 'UNSPECIFIED', 'UNSPECIFIED', ('UNSPECIFIED'), ('UNSPECIFIED'), ('UNSPECIFIED') ) ;
#114 = SECURITY_CLASSIFICATION ( '', '', #4 ) ;
#115 = AXIS2_PLACEMENT_3D ( 'NONE', #48, #17, #106 ) ;
#116 = DATE_AND_TIME ( #77, #50 ) ;
#117 = DATE_AND_TIME ( #152, #53 ) ;
#118 = CARTESIAN_POINT ( 'NONE',  ( 0.0000000000000000000, 0.0000000000000000000, -3.174999999999999800 ) ) ;
#119 = CC_DESIGN_PERSON_AND_ORGANIZATION_ASSIGNMENT ( #65, #125, ( #39 ) ) ;
#120 = ORIENTED_EDGE ( 'NONE', *, *, #76, .T. ) ;
#121 = CARTESIAN_POINT ( 'NONE',  ( 6.349999999999999600, 7.776507174585692200E-016, -3.174999999999999800 ) ) ;
#122 = PERSON_AND_ORGANIZATION ( #113, #91 ) ;
#123 = PERSON_AND_ORGANIZATION_ROLE ( 'design_owner' ) ;
#124 = FACE_OUTER_BOUND ( 'NONE', #28, .T. ) ;
#125 = PERSON_AND_ORGANIZATION_ROLE ( 'design_supplier' ) ;
#126 = PERSON_AND_ORGANIZATION ( #113, #91 ) ;
#127 = CYLINDRICAL_SURFACE ( 'NONE', #30, 6.349999999999999600 ) ;
#128 = CC_DESIGN_APPROVAL ( #31, ( #114 ) ) ;
#129 = CC_DESIGN_APPROVAL ( #108, ( #39 ) ) ;
#130 = ORIENTED_EDGE ( 'NONE', *, *, #87, .F. ) ;
#131 = ADVANCED_FACE ( 'NONE', ( #124 ), #61, .T. ) ;
#132 = MANIFOLD_SOLID_BREP ( 'Boss-Extrude1', #140 ) ;
#133 = DATE_AND_TIME ( #167, #16 ) ;
#134 = PERSON_AND_ORGANIZATION_ROLE ( 'creator' ) ;
#135 = ORIENTED_EDGE ( 'NONE', *, *, #155, .F. ) ;
#136 = DIRECTION ( 'NONE',  ( 1.000000000000000000, 0.0000000000000000000, 0.0000000000000000000 ) ) ;
#137 = DIRECTION ( 'NONE',  ( 1.000000000000000000, 0.0000000000000000000, 0.0000000000000000000 ) ) ;
#138 = ORIENTED_EDGE ( 'NONE', *, *, #27, .T. ) ;
#139 = CC_DESIGN_APPROVAL ( #12, ( #105 ) ) ;
#140 = CLOSED_SHELL ( 'NONE', ( #11, #79, #131, #29 ) ) ;
#141 = DIRECTION ( 'NONE',  ( 1.000000000000000000, 0.0000000000000000000, -0.0000000000000000000 ) ) ;
#142 = CC_DESIGN_PERSON_AND_ORGANIZATION_ASSIGNMENT ( #126, #3, ( #114 ) ) ;
#143 = DIRECTION ( 'NONE',  ( -0.0000000000000000000, -0.0000000000000000000, -1.000000000000000000 ) ) ;
#144 =( LENGTH_UNIT ( ) NAMED_UNIT ( * ) SI_UNIT ( .MILLI., .METRE. ) );
#145 = APPROVAL_DATE_TIME ( #133, #108 ) ;
#146 = CARTESIAN_POINT ( 'NONE',  ( 0.0000000000000000000, 0.0000000000000000000, 3.174999999999999800 ) ) ;
#147 = AXIS2_PLACEMENT_3D ( 'NONE', #20, #46, #136 ) ;
#148 = COORDINATED_UNIVERSAL_TIME_OFFSET ( 5, 0, .BEHIND. ) ;
#149 = PERSON_AND_ORGANIZATION_ROLE ( 'creator' ) ;
#150 = AXIS2_PLACEMENT_3D ( 'NONE', #146, #15, #137 ) ;
#151 = LOCAL_TIME ( 14, 40, 42.00000000000000000, #1 ) ;
#152 = CALENDAR_DATE ( 2018, 3, 8 ) ;
#153 = PRODUCT ( 'Web Model 37688_37716', 'Web Model 37688_37716', '', ( #36 ) ) ;
#154 = VERTEX_POINT ( 'NONE', #97 ) ;
#155 = EDGE_CURVE ( 'NONE', #78, #38, #8, .T. ) ;
#156 = CIRCLE ( 'NONE', #166, 6.349999999999999600 ) ;
#157 = DIRECTION ( 'NONE',  ( -0.0000000000000000000, -0.0000000000000000000, -1.000000000000000000 ) ) ;
#158 = ORIENTED_EDGE ( 'NONE', *, *, #70, .F. ) ;
#159 = DIRECTION ( 'NONE',  ( 0.0000000000000000000, 0.0000000000000000000, 1.000000000000000000 ) ) ;
#160 = DIRECTION ( 'NONE',  ( -1.000000000000000000, 0.0000000000000000000, 0.0000000000000000000 ) ) ;
#161 = APPROVAL_PERSON_ORGANIZATION ( #13, #108, #6 ) ;
#162 = EDGE_LOOP ( 'NONE', ( #135, #34 ) ) ;
#163 = DIRECTION ( 'NONE',  ( 1.000000000000000000, 0.0000000000000000000, -0.0000000000000000000 ) ) ;
#164 = APPLICATION_PROTOCOL_DEFINITION ( 'international standard', 'config_control_design', 1994, #68 ) ;
#165 = CIRCLE ( 'NONE', #115, 6.349999999999999600 ) ;
#166 = AXIS2_PLACEMENT_3D ( 'NONE', #45, #159, #10 ) ;
#167 = CALENDAR_DATE ( 2018, 3, 8 ) ;
#168 = ORIENTED_EDGE ( 'NONE', *, *, #27, .F. ) ;
#169 = CC_DESIGN_PERSON_AND_ORGANIZATION_ASSIGNMENT ( #122, #123, ( #153 ) ) ;
#170 = EDGE_LOOP ( 'NONE', ( #107, #130, #103, #26 ) ) ;
#171 = CARTESIAN_POINT ( 'NONE',  ( -6.349999999999999600, 0.0000000000000000000, 3.174999999999999800 ) ) ;
#172 = EDGE_LOOP ( 'NONE', ( #168, #42, #120, #158 ) ) ;
#173 = COORDINATED_UNIVERSAL_TIME_OFFSET ( 5, 0, .BEHIND. ) ;
#174 = APPROVAL_STATUS ( 'not_yet_approved' ) ;
#175 = DIRECTION ( 'NONE',  ( 0.0000000000000000000, 0.0000000000000000000, 1.000000000000000000 ) ) ;
ENDSEC;
END-ISO-10303-21;
