ISO-10303-21;
HEADER;
FILE_DESCRIPTION (( 'STEP AP203' ),
    '1' );
FILE_NAME ('Web Model 62885.STEP',
    '2017-01-31T18:26:34',
    ( '' ),
    ( '' ),
    'SwSTEP 2.0',
    'SolidWorks 2016',
    '' );
FILE_SCHEMA (( 'CONFIG_CONTROL_DESIGN' ));
ENDSEC;

DATA;
#1 = VECTOR ( 'NONE', #31, 1000.000000000000000 ) ;
#2 =( NAMED_UNIT ( * ) SI_UNIT ( $, .STERADIAN. ) SOLID_ANGLE_UNIT ( ) );
#3 = CC_DESIGN_PERSON_AND_ORGANIZATION_ASSIGNMENT ( #133, #62, ( #212 ) ) ;
#4 = VECTOR ( 'NONE', #109, 1000.000000000000000 ) ;
#5 = ORIENTED_EDGE ( 'NONE', *, *, #131, .T. ) ;
#6 = PERSON_AND_ORGANIZATION_ROLE ( 'classification_officer' ) ;
#7 = PERSON_AND_ORGANIZATION_ROLE ( 'design_owner' ) ;
#8 = AXIS2_PLACEMENT_3D ( 'NONE', #122, #235, #35 ) ;
#9 = PERSON ( 'UNSPECIFIED', 'UNSPECIFIED', 'UNSPECIFIED', ('UNSPECIFIED'), ('UNSPECIFIED'), ('UNSPECIFIED') ) ;
#10 = LOCAL_TIME ( 13, 26, 34.00000000000000000, #84 ) ;
#11 = EDGE_CURVE ( 'NONE', #134, #206, #42, .T. ) ;
#12 = VECTOR ( 'NONE', #26, 1000.000000000000000 ) ;
#13 = ADVANCED_FACE ( 'NONE', ( #169 ), #176, .T. ) ;
#14 = DIRECTION ( 'NONE',  ( 1.000000000000000000, 0.0000000000000000000, 0.0000000000000000000 ) ) ;
#15 = COORDINATED_UNIVERSAL_TIME_OFFSET ( 5, 0, .BEHIND. ) ;
#16 = PLANE ( 'NONE',  #179 ) ;
#17 = DIRECTION ( 'NONE',  ( -1.000000000000000000, -0.0000000000000000000, -0.0000000000000000000 ) ) ;
#18 = AXIS2_PLACEMENT_3D ( 'NONE', #32, #213, #123 ) ;
#19 = DIRECTION ( 'NONE',  ( 0.0000000000000000000, -1.000000000000000000, 0.0000000000000000000 ) ) ;
#20 = APPROVAL_PERSON_ORGANIZATION ( #208, #230, #80 ) ;
#21 = ORIENTED_EDGE ( 'NONE', *, *, #153, .T. ) ;
#22 = MECHANICAL_CONTEXT ( 'NONE', #114, 'mechanical' ) ;
#23 = CARTESIAN_POINT ( 'NONE',  ( -37.50000000000000000, 25.00000000000000000, 0.0000000000000000000 ) ) ;
#24 = CC_DESIGN_APPROVAL ( #225, ( #184 ) ) ;
#25 = PERSON_AND_ORGANIZATION ( #9, #197 ) ;
#26 = DIRECTION ( 'NONE',  ( 0.0000000000000000000, 0.0000000000000000000, 1.000000000000000000 ) ) ;
#27 = CARTESIAN_POINT ( 'NONE',  ( 37.50000000000000000, 25.00000000000000000, -3.000000000000000000 ) ) ;
#28 = EDGE_LOOP ( 'NONE', ( #226, #138, #229, #78 ) ) ;
#29 = CALENDAR_DATE ( 2017, 31, 1 ) ;
#30 = EDGE_LOOP ( 'NONE', ( #81, #89, #73, #127 ) ) ;
#31 = DIRECTION ( 'NONE',  ( 0.0000000000000000000, 0.0000000000000000000, 1.000000000000000000 ) ) ;
#32 = CARTESIAN_POINT ( 'NONE',  ( -37.50000000000000000, -25.00000000000000000, 0.0000000000000000000 ) ) ;
#33 = VERTEX_POINT ( 'NONE', #36 ) ;
#34 = CC_DESIGN_SECURITY_CLASSIFICATION ( #184, ( #86 ) ) ;
#35 = DIRECTION ( 'NONE',  ( 0.0000000000000000000, 0.0000000000000000000, 1.000000000000000000 ) ) ;
#36 = CARTESIAN_POINT ( 'NONE',  ( 37.50000000000000000, 25.00000000000000000, 0.0000000000000000000 ) ) ;
#37 = DIRECTION ( 'NONE',  ( 0.0000000000000000000, 0.0000000000000000000, 1.000000000000000000 ) ) ;
#38 = DATE_AND_TIME ( #88, #95 ) ;
#39 = ADVANCED_FACE ( 'NONE', ( #60 ), #16, .T. ) ;
#40 = LINE ( 'NONE', #75, #85 ) ;
#41 = EDGE_CURVE ( 'NONE', #55, #83, #140, .T. ) ;
#42 = LINE ( 'NONE', #119, #1 ) ;
#43 = APPROVAL_STATUS ( 'not_yet_approved' ) ;
#44 = APPROVAL_STATUS ( 'not_yet_approved' ) ;
#45 = CARTESIAN_POINT ( 'NONE',  ( -37.50000000000000000, 25.00000000000000000, 0.0000000000000000000 ) ) ;
#46 = LOCAL_TIME ( 13, 26, 34.00000000000000000, #135 ) ;
#47 = AXIS2_PLACEMENT_3D ( 'NONE', #156, #217, #57 ) ;
#48 = CARTESIAN_POINT ( 'NONE',  ( 37.50000000000000000, 25.00000000000000000, -3.000000000000000000 ) ) ;
#49 = SHAPE_DEFINITION_REPRESENTATION ( #68, #154 ) ;
#50 = ORIENTED_EDGE ( 'NONE', *, *, #219, .T. ) ;
#51 = PRODUCT_RELATED_PRODUCT_CATEGORY ( 'detail', '', ( #66 ) ) ;
#52 = DATE_AND_TIME ( #232, #59 ) ;
#53 = FACE_OUTER_BOUND ( 'NONE', #28, .T. ) ;
#54 = CC_DESIGN_PERSON_AND_ORGANIZATION_ASSIGNMENT ( #71, #185, ( #86 ) ) ;
#55 = VERTEX_POINT ( 'NONE', #94 ) ;
#56 = DIRECTION ( 'NONE',  ( 0.0000000000000000000, -0.0000000000000000000, -1.000000000000000000 ) ) ;
#57 = DIRECTION ( 'NONE',  ( 0.0000000000000000000, -0.0000000000000000000, 1.000000000000000000 ) ) ;
#58 = ADVANCED_FACE ( 'NONE', ( #192 ), #160, .T. ) ;
#59 = LOCAL_TIME ( 13, 26, 34.00000000000000000, #15 ) ;
#60 = FACE_OUTER_BOUND ( 'NONE', #171, .T. ) ;
#61 = APPROVAL_ROLE ( '' ) ;
#62 = PERSON_AND_ORGANIZATION_ROLE ( 'creator' ) ;
#63 = CC_DESIGN_APPROVAL ( #230, ( #212 ) ) ;
#64 = DIRECTION ( 'NONE',  ( -0.0000000000000000000, 1.000000000000000000, -0.0000000000000000000 ) ) ;
#65 = AXIS2_PLACEMENT_3D ( 'NONE', #141, #104, #14 ) ;
#66 = PRODUCT ( 'Web Model 62885', 'Web Model 62885', '', ( #22 ) ) ;
#67 = LINE ( 'NONE', #27, #107 ) ;
#68 = PRODUCT_DEFINITION_SHAPE ( 'NONE', 'NONE',  #212 ) ;
#69 = ORIENTED_EDGE ( 'NONE', *, *, #87, .T. ) ;
#70 = DIRECTION ( 'NONE',  ( 1.000000000000000000, 0.0000000000000000000, -0.0000000000000000000 ) ) ;
#71 = PERSON_AND_ORGANIZATION ( #9, #197 ) ;
#72 = CC_DESIGN_DATE_AND_TIME_ASSIGNMENT ( #38, #113, ( #212 ) ) ;
#73 = ORIENTED_EDGE ( 'NONE', *, *, #209, .T. ) ;
#74 = DESIGN_CONTEXT ( 'detailed design', #130, 'design' ) ;
#75 = CARTESIAN_POINT ( 'NONE',  ( -37.50000000000000000, -25.00000000000000000, -3.000000000000000000 ) ) ;
#76 = CARTESIAN_POINT ( 'NONE',  ( 37.50000000000000000, -25.00000000000000000, 0.0000000000000000000 ) ) ;
#77 = PERSON_AND_ORGANIZATION ( #9, #197 ) ;
#78 = ORIENTED_EDGE ( 'NONE', *, *, #11, .T. ) ;
#79 = CC_DESIGN_PERSON_AND_ORGANIZATION_ASSIGNMENT ( #202, #146, ( #86 ) ) ;
#80 = APPROVAL_ROLE ( '' ) ;
#81 = ORIENTED_EDGE ( 'NONE', *, *, #151, .T. ) ;
#82 = LOCAL_TIME ( 13, 26, 34.00000000000000000, #126 ) ;
#83 = VERTEX_POINT ( 'NONE', #76 ) ;
#84 = COORDINATED_UNIVERSAL_TIME_OFFSET ( 5, 0, .BEHIND. ) ;
#85 = VECTOR ( 'NONE', #92, 1000.000000000000000 ) ;
#86 = PRODUCT_DEFINITION_FORMATION_WITH_SPECIFIED_SOURCE ( 'ANY', '', #66, .NOT_KNOWN. ) ;
#87 = EDGE_CURVE ( 'NONE', #216, #55, #40, .T. ) ;
#88 = CALENDAR_DATE ( 2017, 31, 1 ) ;
#89 = ORIENTED_EDGE ( 'NONE', *, *, #174, .T. ) ;
#90 = CC_DESIGN_PERSON_AND_ORGANIZATION_ASSIGNMENT ( #118, #6, ( #184 ) ) ;
#91 = MANIFOLD_SOLID_BREP ( 'Extrude1', #183 ) ;
#92 = DIRECTION ( 'NONE',  ( 1.000000000000000000, 0.0000000000000000000, 0.0000000000000000000 ) ) ;
#93 = CARTESIAN_POINT ( 'NONE',  ( -37.50000000000000000, 25.00000000000000000, -3.000000000000000000 ) ) ;
#94 = CARTESIAN_POINT ( 'NONE',  ( 37.50000000000000000, -25.00000000000000000, -3.000000000000000000 ) ) ;
#95 = LOCAL_TIME ( 13, 26, 34.00000000000000000, #137 ) ;
#96 = CARTESIAN_POINT ( 'NONE',  ( -37.50000000000000000, 25.00000000000000000, -3.000000000000000000 ) ) ;
#97 = LINE ( 'NONE', #23, #191 ) ;
#98 = DIRECTION ( 'NONE',  ( 1.000000000000000000, 0.0000000000000000000, 0.0000000000000000000 ) ) ;
#99 = DATE_TIME_ROLE ( 'classification_date' ) ;
#100 = VECTOR ( 'NONE', #147, 1000.000000000000000 ) ;
#101 = VERTEX_POINT ( 'NONE', #158 ) ;
#102 = LINE ( 'NONE', #222, #152 ) ;
#103 = EDGE_LOOP ( 'NONE', ( #234, #145, #69, #173 ) ) ;
#104 = DIRECTION ( 'NONE',  ( -0.0000000000000000000, 0.0000000000000000000, 1.000000000000000000 ) ) ;
#105 = CC_DESIGN_APPROVAL ( #148, ( #86 ) ) ;
#106 = CARTESIAN_POINT ( 'NONE',  ( -37.50000000000000000, -25.00000000000000000, -3.000000000000000000 ) ) ;
#107 = VECTOR ( 'NONE', #168, 1000.000000000000000 ) ;
#108 = DIRECTION ( 'NONE',  ( -1.000000000000000000, -0.0000000000000000000, -0.0000000000000000000 ) ) ;
#109 = DIRECTION ( 'NONE',  ( 0.0000000000000000000, -1.000000000000000000, 0.0000000000000000000 ) ) ;
#110 =( NAMED_UNIT ( * ) PLANE_ANGLE_UNIT ( ) SI_UNIT ( $, .RADIAN. ) );
#111 = ORIENTED_EDGE ( 'NONE', *, *, #164, .F. ) ;
#112 = ADVANCED_FACE ( 'NONE', ( #121 ), #236, .T. ) ;
#113 = DATE_TIME_ROLE ( 'creation_date' ) ;
#114 = APPLICATION_CONTEXT ( 'configuration controlled 3d designs of mechanical parts and assemblies' ) ;
#115 = CARTESIAN_POINT ( 'NONE',  ( 37.50000000000000000, 25.00000000000000000, 0.0000000000000000000 ) ) ;
#116 = FACE_OUTER_BOUND ( 'NONE', #211, .T. ) ;
#117 = LINE ( 'NONE', #215, #129 ) ;
#118 = PERSON_AND_ORGANIZATION ( #9, #197 ) ;
#119 = CARTESIAN_POINT ( 'NONE',  ( -37.50000000000000000, 25.00000000000000000, -3.000000000000000000 ) ) ;
#120 = EDGE_CURVE ( 'NONE', #33, #206, #117, .T. ) ;
#121 = FACE_OUTER_BOUND ( 'NONE', #30, .T. ) ;
#122 = CARTESIAN_POINT ( 'NONE',  ( -37.50000000000000000, 25.00000000000000000, -3.000000000000000000 ) ) ;
#123 = DIRECTION ( 'NONE',  ( 1.000000000000000000, 0.0000000000000000000, 0.0000000000000000000 ) ) ;
#124 = DIRECTION ( 'NONE',  ( -0.0000000000000000000, 0.0000000000000000000, -1.000000000000000000 ) ) ;
#125 = ADVANCED_FACE ( 'NONE', ( #53 ), #161, .T. ) ;
#126 = COORDINATED_UNIVERSAL_TIME_OFFSET ( 5, 0, .BEHIND. ) ;
#127 = ORIENTED_EDGE ( 'NONE', *, *, #120, .T. ) ;
#128 = APPROVAL_STATUS ( 'not_yet_approved' ) ;
#129 = VECTOR ( 'NONE', #17, 1000.000000000000000 ) ;
#130 = APPLICATION_CONTEXT ( 'configuration controlled 3d designs of mechanical parts and assemblies' ) ;
#131 = EDGE_CURVE ( 'NONE', #134, #216, #203, .T. ) ;
#132 = CALENDAR_DATE ( 2017, 31, 1 ) ;
#133 = PERSON_AND_ORGANIZATION ( #9, #197 ) ;
#134 = VERTEX_POINT ( 'NONE', #96 ) ;
#135 = COORDINATED_UNIVERSAL_TIME_OFFSET ( 5, 0, .BEHIND. ) ;
#136 = ORIENTED_EDGE ( 'NONE', *, *, #131, .F. ) ;
#137 = COORDINATED_UNIVERSAL_TIME_OFFSET ( 5, 0, .BEHIND. ) ;
#138 = ORIENTED_EDGE ( 'NONE', *, *, #219, .F. ) ;
#139 = LINE ( 'NONE', #115, #187 ) ;
#140 = LINE ( 'NONE', #195, #231 ) ;
#141 = CARTESIAN_POINT ( 'NONE',  ( -37.50000000000000000, -25.00000000000000000, -3.000000000000000000 ) ) ;
#142 = SECURITY_CLASSIFICATION_LEVEL ( 'unclassified' ) ;
#143 = LINE ( 'NONE', #186, #12 ) ;
#144 = ADVANCED_FACE ( 'NONE', ( #116 ), #218, .F. ) ;
#145 = ORIENTED_EDGE ( 'NONE', *, *, #153, .F. ) ;
#146 = PERSON_AND_ORGANIZATION_ROLE ( 'design_supplier' ) ;
#147 = DIRECTION ( 'NONE',  ( 0.0000000000000000000, 0.0000000000000000000, 1.000000000000000000 ) ) ;
#148 = APPROVAL ( #44, 'UNSPECIFIED' ) ;
#149 = APPLICATION_PROTOCOL_DEFINITION ( 'international standard', 'config_control_design', 1994, #130 ) ;
#150 = CARTESIAN_POINT ( 'NONE',  ( 0.0000000000000000000, 0.0000000000000000000, 0.0000000000000000000 ) ) ;
#151 = EDGE_CURVE ( 'NONE', #206, #101, #97, .T. ) ;
#152 = VECTOR ( 'NONE', #98, 1000.000000000000000 ) ;
#153 = EDGE_CURVE ( 'NONE', #216, #101, #167, .T. ) ;
#154 = ADVANCED_BREP_SHAPE_REPRESENTATION ( 'Web Model 62885', ( #91, #157 ), #170 ) ;
#155 = ORIENTED_EDGE ( 'NONE', *, *, #151, .F. ) ;
#156 = CARTESIAN_POINT ( 'NONE',  ( -37.50000000000000000, 25.00000000000000000, -3.000000000000000000 ) ) ;
#157 = AXIS2_PLACEMENT_3D ( 'NONE', #150, #207, #166 ) ;
#158 = CARTESIAN_POINT ( 'NONE',  ( -37.50000000000000000, -25.00000000000000000, 0.0000000000000000000 ) ) ;
#159 = LINE ( 'NONE', #93, #205 ) ;
#160 = PLANE ( 'NONE',  #8 ) ;
#161 = PLANE ( 'NONE',  #47 ) ;
#162 = DATE_AND_TIME ( #132, #46 ) ;
#163 = ORIENTED_EDGE ( 'NONE', *, *, #209, .F. ) ;
#164 = EDGE_CURVE ( 'NONE', #180, #134, #159, .T. ) ;
#165 = APPROVAL_DATE_TIME ( #196, #225 ) ;
#166 = DIRECTION ( 'NONE',  ( 1.000000000000000000, 0.0000000000000000000, 0.0000000000000000000 ) ) ;
#167 = LINE ( 'NONE', #224, #100 ) ;
#168 = DIRECTION ( 'NONE',  ( -0.0000000000000000000, 1.000000000000000000, -0.0000000000000000000 ) ) ;
#169 = FACE_OUTER_BOUND ( 'NONE', #103, .T. ) ;
#170 =( GEOMETRIC_REPRESENTATION_CONTEXT ( 3 ) GLOBAL_UNCERTAINTY_ASSIGNED_CONTEXT ( ( #193 ) ) GLOBAL_UNIT_ASSIGNED_CONTEXT ( ( #223, #110, #2 ) ) REPRESENTATION_CONTEXT ( 'NONE', 'WORKASPACE' ) );
#171 = EDGE_LOOP ( 'NONE', ( #163, #175, #221, #50 ) ) ;
#172 = APPROVAL_PERSON_ORGANIZATION ( #228, #148, #61 ) ;
#173 = ORIENTED_EDGE ( 'NONE', *, *, #41, .T. ) ;
#174 = EDGE_CURVE ( 'NONE', #101, #83, #102, .T. ) ;
#175 = ORIENTED_EDGE ( 'NONE', *, *, #41, .F. ) ;
#176 = PLANE ( 'NONE',  #189 ) ;
#177 = APPROVAL_PERSON_ORGANIZATION ( #77, #225, #182 ) ;
#178 = CARTESIAN_POINT ( 'NONE',  ( 37.50000000000000000, 25.00000000000000000, -3.000000000000000000 ) ) ;
#179 = AXIS2_PLACEMENT_3D ( 'NONE', #178, #70, #124 ) ;
#180 = VERTEX_POINT ( 'NONE', #48 ) ;
#181 = APPLICATION_PROTOCOL_DEFINITION ( 'international standard', 'config_control_design', 1994, #114 ) ;
#182 = APPROVAL_ROLE ( '' ) ;
#183 = CLOSED_SHELL ( 'NONE', ( #58, #125, #39, #13, #144, #112 ) ) ;
#184 = SECURITY_CLASSIFICATION ( '', '', #142 ) ;
#185 = PERSON_AND_ORGANIZATION_ROLE ( 'creator' ) ;
#186 = CARTESIAN_POINT ( 'NONE',  ( 37.50000000000000000, 25.00000000000000000, -3.000000000000000000 ) ) ;
#187 = VECTOR ( 'NONE', #64, 1000.000000000000000 ) ;
#188 = ORIENTED_EDGE ( 'NONE', *, *, #227, .F. ) ;
#189 = AXIS2_PLACEMENT_3D ( 'NONE', #106, #198, #56 ) ;
#190 = ORIENTED_EDGE ( 'NONE', *, *, #87, .F. ) ;
#191 = VECTOR ( 'NONE', #19, 1000.000000000000000 ) ;
#192 = FACE_OUTER_BOUND ( 'NONE', #201, .T. ) ;
#193 = UNCERTAINTY_MEASURE_WITH_UNIT (LENGTH_MEASURE( 1.000000000000000100E-005 ), #223, 'distance_accuracy_value', 'NONE');
#194 = CC_DESIGN_DATE_AND_TIME_ASSIGNMENT ( #162, #99, ( #184 ) ) ;
#195 = CARTESIAN_POINT ( 'NONE',  ( 37.50000000000000000, -25.00000000000000000, -3.000000000000000000 ) ) ;
#196 = DATE_AND_TIME ( #214, #10 ) ;
#197 = ORGANIZATION ( 'UNSPECIFIED', 'UNSPECIFIED', '' ) ;
#198 = DIRECTION ( 'NONE',  ( 0.0000000000000000000, -1.000000000000000000, 0.0000000000000000000 ) ) ;
#199 = CARTESIAN_POINT ( 'NONE',  ( -37.50000000000000000, 25.00000000000000000, -3.000000000000000000 ) ) ;
#200 = CC_DESIGN_PERSON_AND_ORGANIZATION_ASSIGNMENT ( #25, #7, ( #66 ) ) ;
#201 = EDGE_LOOP ( 'NONE', ( #155, #233, #5, #21 ) ) ;
#202 = PERSON_AND_ORGANIZATION ( #9, #197 ) ;
#203 = LINE ( 'NONE', #199, #4 ) ;
#204 = CARTESIAN_POINT ( 'NONE',  ( -37.50000000000000000, -25.00000000000000000, -3.000000000000000000 ) ) ;
#205 = VECTOR ( 'NONE', #108, 1000.000000000000000 ) ;
#206 = VERTEX_POINT ( 'NONE', #45 ) ;
#207 = DIRECTION ( 'NONE',  ( 0.0000000000000000000, 0.0000000000000000000, 1.000000000000000000 ) ) ;
#208 = PERSON_AND_ORGANIZATION ( #9, #197 ) ;
#209 = EDGE_CURVE ( 'NONE', #83, #33, #139, .T. ) ;
#210 = APPROVAL_DATE_TIME ( #220, #148 ) ;
#211 = EDGE_LOOP ( 'NONE', ( #136, #111, #188, #190 ) ) ;
#212 = PRODUCT_DEFINITION ( 'UNKNOWN', '', #86, #74 ) ;
#213 = DIRECTION ( 'NONE',  ( -0.0000000000000000000, 0.0000000000000000000, 1.000000000000000000 ) ) ;
#214 = CALENDAR_DATE ( 2017, 31, 1 ) ;
#215 = CARTESIAN_POINT ( 'NONE',  ( -37.50000000000000000, 25.00000000000000000, 0.0000000000000000000 ) ) ;
#216 = VERTEX_POINT ( 'NONE', #204 ) ;
#217 = DIRECTION ( 'NONE',  ( 0.0000000000000000000, 1.000000000000000000, 0.0000000000000000000 ) ) ;
#218 = PLANE ( 'NONE',  #65 ) ;
#219 = EDGE_CURVE ( 'NONE', #180, #33, #143, .T. ) ;
#220 = DATE_AND_TIME ( #29, #82 ) ;
#221 = ORIENTED_EDGE ( 'NONE', *, *, #227, .T. ) ;
#222 = CARTESIAN_POINT ( 'NONE',  ( -37.50000000000000000, -25.00000000000000000, 0.0000000000000000000 ) ) ;
#223 =( LENGTH_UNIT ( ) NAMED_UNIT ( * ) SI_UNIT ( .MILLI., .METRE. ) );
#224 = CARTESIAN_POINT ( 'NONE',  ( -37.50000000000000000, -25.00000000000000000, -3.000000000000000000 ) ) ;
#225 = APPROVAL ( #43, 'UNSPECIFIED' ) ;
#226 = ORIENTED_EDGE ( 'NONE', *, *, #120, .F. ) ;
#227 = EDGE_CURVE ( 'NONE', #55, #180, #67, .T. ) ;
#228 = PERSON_AND_ORGANIZATION ( #9, #197 ) ;
#229 = ORIENTED_EDGE ( 'NONE', *, *, #164, .T. ) ;
#230 = APPROVAL ( #128, 'UNSPECIFIED' ) ;
#231 = VECTOR ( 'NONE', #37, 1000.000000000000000 ) ;
#232 = CALENDAR_DATE ( 2017, 31, 1 ) ;
#233 = ORIENTED_EDGE ( 'NONE', *, *, #11, .F. ) ;
#234 = ORIENTED_EDGE ( 'NONE', *, *, #174, .F. ) ;
#235 = DIRECTION ( 'NONE',  ( -1.000000000000000000, 0.0000000000000000000, 0.0000000000000000000 ) ) ;
#236 = PLANE ( 'NONE',  #18 ) ;
#237 = APPROVAL_DATE_TIME ( #52, #230 ) ;
ENDSEC;
END-ISO-10303-21;
