ISO-10303-21;
HEADER;
FILE_DESCRIPTION (( 'STEP AP203' ),
    '1' );
FILE_NAME ('Web Model 46162_46105.step',
    '2017-04-19T19:15:16',
    ( '' ),
    ( '' ),
    'SwSTEP 2.0',
    'SolidWorks 2016',
    '' );
FILE_SCHEMA (( 'CONFIG_CONTROL_DESIGN' ));
ENDSEC;

DATA;
#1 = LOCAL_TIME ( 15, 15, 16.00000000000000000, #86 ) ;
#2 = PERSON_AND_ORGANIZATION ( #149, #170 ) ;
#3 = DIRECTION ( 'NONE',  ( -1.000000000000000000, 0.0000000000000000000, 0.0000000000000000000 ) ) ;
#4 = PRODUCT_DEFINITION ( 'UNKNOWN', '', #10, #115 ) ;
#5 = CIRCLE ( 'NONE', #50, 6.249999999999998200 ) ;
#6 = CARTESIAN_POINT ( 'NONE',  ( 0.0000000000000000000, 0.0000000000000000000, 0.0000000000000000000 ) ) ;
#7 = VERTEX_POINT ( 'NONE', #121 ) ;
#8 = EDGE_LOOP ( 'NONE', ( #144, #93, #12, #138 ) ) ;
#9 = CARTESIAN_POINT ( 'NONE',  ( 6.249999999999998200, 7.654042494670955600E-016, 2.500000000000000000 ) ) ;
#10 = PRODUCT_DEFINITION_FORMATION_WITH_SPECIFIED_SOURCE ( 'ANY', '', #29, .NOT_KNOWN. ) ;
#11 = ORIENTED_EDGE ( 'NONE', *, *, #53, .F. ) ;
#12 = ORIENTED_EDGE ( 'NONE', *, *, #81, .T. ) ;
#13 = PERSON_AND_ORGANIZATION ( #149, #170 ) ;
#14 = DIRECTION ( 'NONE',  ( 0.0000000000000000000, 0.0000000000000000000, 1.000000000000000000 ) ) ;
#15 = DATE_AND_TIME ( #152, #130 ) ;
#16 = APPROVAL ( #90, 'UNSPECIFIED' ) ;
#17 = CARTESIAN_POINT ( 'NONE',  ( -6.249999999999998200, 0.0000000000000000000, 2.500000000000000000 ) ) ;
#18 = APPLICATION_PROTOCOL_DEFINITION ( 'international standard', 'config_control_design', 1994, #139 ) ;
#19 = CIRCLE ( 'NONE', #26, 6.249999999999998200 ) ;
#20 = COORDINATED_UNIVERSAL_TIME_OFFSET ( 5, 0, .BEHIND. ) ;
#21 = DIRECTION ( 'NONE',  ( 0.0000000000000000000, 0.0000000000000000000, 1.000000000000000000 ) ) ;
#22 = APPROVAL_DATE_TIME ( #77, #16 ) ;
#23 = PLANE ( 'NONE',  #98 ) ;
#24 = AXIS2_PLACEMENT_3D ( 'NONE', #88, #61, #97 ) ;
#25 = DIRECTION ( 'NONE',  ( 1.000000000000000000, 0.0000000000000000000, 0.0000000000000000000 ) ) ;
#26 = AXIS2_PLACEMENT_3D ( 'NONE', #6, #101, #76 ) ;
#27 = PERSON_AND_ORGANIZATION ( #149, #170 ) ;
#28 = SHAPE_DEFINITION_REPRESENTATION ( #146, #126 ) ;
#29 = PRODUCT ( 'Web Model 46162_46105', 'Web Model 46162_46105', '', ( #92 ) ) ;
#30 = FACE_OUTER_BOUND ( 'NONE', #137, .T. ) ;
#31 = VECTOR ( 'NONE', #65, 1000.000000000000000 ) ;
#32 = DIRECTION ( 'NONE',  ( 0.0000000000000000000, 0.0000000000000000000, 1.000000000000000000 ) ) ;
#33 = CC_DESIGN_APPROVAL ( #72, ( #10 ) ) ;
#34 = ORIENTED_EDGE ( 'NONE', *, *, #99, .F. ) ;
#35 = CARTESIAN_POINT ( 'NONE',  ( -6.249999999999998200, 0.0000000000000000000, 2.500000000000000000 ) ) ;
#36 = EDGE_CURVE ( 'NONE', #110, #120, #113, .T. ) ;
#37 = ORIENTED_EDGE ( 'NONE', *, *, #56, .F. ) ;
#38 = DIRECTION ( 'NONE',  ( 1.000000000000000000, 0.0000000000000000000, 0.0000000000000000000 ) ) ;
#39 = AXIS2_PLACEMENT_3D ( 'NONE', #153, #131, #3 ) ;
#40 = AXIS2_PLACEMENT_3D ( 'NONE', #158, #21, #25 ) ;
#41 = APPROVAL_PERSON_ORGANIZATION ( #2, #72, #73 ) ;
#42 = APPROVAL_STATUS ( 'not_yet_approved' ) ;
#43 = VERTEX_POINT ( 'NONE', #150 ) ;
#44 = AXIS2_PLACEMENT_3D ( 'NONE', #66, #163, #108 ) ;
#45 =( LENGTH_UNIT ( ) NAMED_UNIT ( * ) SI_UNIT ( .MILLI., .METRE. ) );
#46 = DATE_TIME_ROLE ( 'creation_date' ) ;
#47 = PERSON_AND_ORGANIZATION ( #149, #170 ) ;
#48 = DATE_TIME_ROLE ( 'classification_date' ) ;
#49 = APPROVAL_PERSON_ORGANIZATION ( #169, #16, #135 ) ;
#50 = AXIS2_PLACEMENT_3D ( 'NONE', #85, #106, #38 ) ;
#51 = APPROVAL_DATE_TIME ( #174, #162 ) ;
#52 = CC_DESIGN_SECURITY_CLASSIFICATION ( #60, ( #10 ) ) ;
#53 = EDGE_CURVE ( 'NONE', #7, #43, #19, .T. ) ;
#54 = EDGE_LOOP ( 'NONE', ( #159, #156 ) ) ;
#55 = PERSON_AND_ORGANIZATION ( #149, #170 ) ;
#56 = EDGE_CURVE ( 'NONE', #110, #43, #89, .T. ) ;
#57 =( GEOMETRIC_REPRESENTATION_CONTEXT ( 3 ) GLOBAL_UNCERTAINTY_ASSIGNED_CONTEXT ( ( #151 ) ) GLOBAL_UNIT_ASSIGNED_CONTEXT ( ( #45, #114, #157 ) ) REPRESENTATION_CONTEXT ( 'NONE', 'WORKASPACE' ) );
#58 = ADVANCED_FACE ( 'NONE', ( #154 ), #91, .T. ) ;
#59 = APPROVAL_STATUS ( 'not_yet_approved' ) ;
#60 = SECURITY_CLASSIFICATION ( '', '', #119 ) ;
#61 = DIRECTION ( 'NONE',  ( 0.0000000000000000000, 0.0000000000000000000, 1.000000000000000000 ) ) ;
#62 = COORDINATED_UNIVERSAL_TIME_OFFSET ( 5, 0, .BEHIND. ) ;
#63 = CARTESIAN_POINT ( 'NONE',  ( 0.0000000000000000000, 0.0000000000000000000, 0.0000000000000000000 ) ) ;
#64 = DIRECTION ( 'NONE',  ( -1.000000000000000000, 0.0000000000000000000, 0.0000000000000000000 ) ) ;
#65 = DIRECTION ( 'NONE',  ( -0.0000000000000000000, -0.0000000000000000000, -1.000000000000000000 ) ) ;
#66 = CARTESIAN_POINT ( 'NONE',  ( 0.0000000000000000000, 0.0000000000000000000, 2.500000000000000000 ) ) ;
#67 = APPROVAL_PERSON_ORGANIZATION ( #47, #162, #148 ) ;
#68 = CC_DESIGN_PERSON_AND_ORGANIZATION_ASSIGNMENT ( #13, #82, ( #4 ) ) ;
#69 = PERSON_AND_ORGANIZATION_ROLE ( 'design_supplier' ) ;
#70 = CLOSED_SHELL ( 'NONE', ( #105, #172, #58, #118 ) ) ;
#71 = CC_DESIGN_PERSON_AND_ORGANIZATION_ASSIGNMENT ( #55, #69, ( #10 ) ) ;
#72 = APPROVAL ( #59, 'UNSPECIFIED' ) ;
#73 = APPROVAL_ROLE ( '' ) ;
#74 = PERSON_AND_ORGANIZATION ( #149, #170 ) ;
#75 = APPLICATION_PROTOCOL_DEFINITION ( 'international standard', 'config_control_design', 1994, #100 ) ;
#76 = DIRECTION ( 'NONE',  ( 1.000000000000000000, 0.0000000000000000000, 0.0000000000000000000 ) ) ;
#77 = DATE_AND_TIME ( #123, #171 ) ;
#78 = CC_DESIGN_APPROVAL ( #16, ( #4 ) ) ;
#79 = PERSON_AND_ORGANIZATION_ROLE ( 'design_owner' ) ;
#80 = FACE_OUTER_BOUND ( 'NONE', #111, .T. ) ;
#81 = EDGE_CURVE ( 'NONE', #43, #7, #5, .T. ) ;
#82 = PERSON_AND_ORGANIZATION_ROLE ( 'creator' ) ;
#83 = CARTESIAN_POINT ( 'NONE',  ( 6.249999999999998200, 7.654042494670955600E-016, 2.500000000000000000 ) ) ;
#84 = CC_DESIGN_APPROVAL ( #162, ( #60 ) ) ;
#85 = CARTESIAN_POINT ( 'NONE',  ( 0.0000000000000000000, 0.0000000000000000000, 0.0000000000000000000 ) ) ;
#86 = COORDINATED_UNIVERSAL_TIME_OFFSET ( 5, 0, .BEHIND. ) ;
#87 = LOCAL_TIME ( 15, 15, 16.00000000000000000, #62 ) ;
#88 = CARTESIAN_POINT ( 'NONE',  ( 0.0000000000000000000, 0.0000000000000000000, 2.500000000000000000 ) ) ;
#89 = LINE ( 'NONE', #9, #31 ) ;
#90 = APPROVAL_STATUS ( 'not_yet_approved' ) ;
#91 = PLANE ( 'NONE',  #44 ) ;
#92 = MECHANICAL_CONTEXT ( 'NONE', #139, 'mechanical' ) ;
#93 = ORIENTED_EDGE ( 'NONE', *, *, #56, .T. ) ;
#94 = COORDINATED_UNIVERSAL_TIME_OFFSET ( 5, 0, .BEHIND. ) ;
#95 = CALENDAR_DATE ( 2017, 19, 4 ) ;
#96 = MANIFOLD_SOLID_BREP ( 'Boss-Extrude1', #70 ) ;
#97 = DIRECTION ( 'NONE',  ( 1.000000000000000000, 0.0000000000000000000, 0.0000000000000000000 ) ) ;
#98 = AXIS2_PLACEMENT_3D ( 'NONE', #63, #14, #155 ) ;
#99 = EDGE_CURVE ( 'NONE', #120, #110, #140, .T. ) ;
#100 = APPLICATION_CONTEXT ( 'configuration controlled 3d designs of mechanical parts and assemblies' ) ;
#101 = DIRECTION ( 'NONE',  ( 0.0000000000000000000, 0.0000000000000000000, 1.000000000000000000 ) ) ;
#102 = COORDINATED_UNIVERSAL_TIME_OFFSET ( 5, 0, .BEHIND. ) ;
#103 = DIRECTION ( 'NONE',  ( 1.000000000000000000, 0.0000000000000000000, 0.0000000000000000000 ) ) ;
#104 = PERSON_AND_ORGANIZATION_ROLE ( 'creator' ) ;
#105 = ADVANCED_FACE ( 'NONE', ( #136 ), #132, .T. ) ;
#106 = DIRECTION ( 'NONE',  ( 0.0000000000000000000, 0.0000000000000000000, 1.000000000000000000 ) ) ;
#107 = CC_DESIGN_PERSON_AND_ORGANIZATION_ASSIGNMENT ( #74, #142, ( #60 ) ) ;
#108 = DIRECTION ( 'NONE',  ( 1.000000000000000000, 0.0000000000000000000, -0.0000000000000000000 ) ) ;
#109 = CC_DESIGN_PERSON_AND_ORGANIZATION_ASSIGNMENT ( #27, #104, ( #10 ) ) ;
#110 = VERTEX_POINT ( 'NONE', #83 ) ;
#111 = EDGE_LOOP ( 'NONE', ( #37, #34, #166, #160 ) ) ;
#112 = CALENDAR_DATE ( 2017, 19, 4 ) ;
#113 = CIRCLE ( 'NONE', #40, 6.249999999999998200 ) ;
#114 =( NAMED_UNIT ( * ) PLANE_ANGLE_UNIT ( ) SI_UNIT ( $, .RADIAN. ) );
#115 = DESIGN_CONTEXT ( 'detailed design', #100, 'design' ) ;
#116 = CARTESIAN_POINT ( 'NONE',  ( 0.0000000000000000000, 0.0000000000000000000, 2.500000000000000000 ) ) ;
#117 = LOCAL_TIME ( 15, 15, 16.00000000000000000, #94 ) ;
#118 = ADVANCED_FACE ( 'NONE', ( #30 ), #23, .F. ) ;
#119 = SECURITY_CLASSIFICATION_LEVEL ( 'unclassified' ) ;
#120 = VERTEX_POINT ( 'NONE', #35 ) ;
#121 = CARTESIAN_POINT ( 'NONE',  ( -6.249999999999998200, 0.0000000000000000000, 0.0000000000000000000 ) ) ;
#122 = EDGE_CURVE ( 'NONE', #120, #7, #127, .T. ) ;
#123 = CALENDAR_DATE ( 2017, 19, 4 ) ;
#124 = AXIS2_PLACEMENT_3D ( 'NONE', #116, #128, #64 ) ;
#125 = VECTOR ( 'NONE', #129, 1000.000000000000000 ) ;
#126 = ADVANCED_BREP_SHAPE_REPRESENTATION ( 'Web Model 46162_46105', ( #96, #167 ), #57 ) ;
#127 = LINE ( 'NONE', #17, #125 ) ;
#128 = DIRECTION ( 'NONE',  ( -0.0000000000000000000, -0.0000000000000000000, -1.000000000000000000 ) ) ;
#129 = DIRECTION ( 'NONE',  ( -0.0000000000000000000, -0.0000000000000000000, -1.000000000000000000 ) ) ;
#130 = LOCAL_TIME ( 15, 15, 16.00000000000000000, #102 ) ;
#131 = DIRECTION ( 'NONE',  ( -0.0000000000000000000, -0.0000000000000000000, -1.000000000000000000 ) ) ;
#132 = CYLINDRICAL_SURFACE ( 'NONE', #39, 6.249999999999998200 ) ;
#133 = PRODUCT_RELATED_PRODUCT_CATEGORY ( 'detail', '', ( #29 ) ) ;
#134 = CYLINDRICAL_SURFACE ( 'NONE', #124, 6.249999999999998200 ) ;
#135 = APPROVAL_ROLE ( '' ) ;
#136 = FACE_OUTER_BOUND ( 'NONE', #8, .T. ) ;
#137 = EDGE_LOOP ( 'NONE', ( #11, #161 ) ) ;
#138 = ORIENTED_EDGE ( 'NONE', *, *, #122, .F. ) ;
#139 = APPLICATION_CONTEXT ( 'configuration controlled 3d designs of mechanical parts and assemblies' ) ;
#140 = CIRCLE ( 'NONE', #24, 6.249999999999998200 ) ;
#141 = DATE_AND_TIME ( #112, #87 ) ;
#142 = PERSON_AND_ORGANIZATION_ROLE ( 'classification_officer' ) ;
#143 = CARTESIAN_POINT ( 'NONE',  ( 0.0000000000000000000, 0.0000000000000000000, 0.0000000000000000000 ) ) ;
#144 = ORIENTED_EDGE ( 'NONE', *, *, #36, .F. ) ;
#145 = CALENDAR_DATE ( 2017, 19, 4 ) ;
#146 = PRODUCT_DEFINITION_SHAPE ( 'NONE', 'NONE',  #4 ) ;
#147 = DATE_AND_TIME ( #95, #1 ) ;
#148 = APPROVAL_ROLE ( '' ) ;
#149 = PERSON ( 'UNSPECIFIED', 'UNSPECIFIED', 'UNSPECIFIED', ('UNSPECIFIED'), ('UNSPECIFIED'), ('UNSPECIFIED') ) ;
#150 = CARTESIAN_POINT ( 'NONE',  ( 6.249999999999998200, 7.654042494670955600E-016, 0.0000000000000000000 ) ) ;
#151 = UNCERTAINTY_MEASURE_WITH_UNIT (LENGTH_MEASURE( 1.000000000000000100E-005 ), #45, 'distance_accuracy_value', 'NONE');
#152 = CALENDAR_DATE ( 2017, 19, 4 ) ;
#153 = CARTESIAN_POINT ( 'NONE',  ( 0.0000000000000000000, 0.0000000000000000000, 2.500000000000000000 ) ) ;
#154 = FACE_OUTER_BOUND ( 'NONE', #54, .T. ) ;
#155 = DIRECTION ( 'NONE',  ( 1.000000000000000000, 0.0000000000000000000, -0.0000000000000000000 ) ) ;
#156 = ORIENTED_EDGE ( 'NONE', *, *, #36, .T. ) ;
#157 =( NAMED_UNIT ( * ) SI_UNIT ( $, .STERADIAN. ) SOLID_ANGLE_UNIT ( ) );
#158 = CARTESIAN_POINT ( 'NONE',  ( 0.0000000000000000000, 0.0000000000000000000, 2.500000000000000000 ) ) ;
#159 = ORIENTED_EDGE ( 'NONE', *, *, #99, .T. ) ;
#160 = ORIENTED_EDGE ( 'NONE', *, *, #53, .T. ) ;
#161 = ORIENTED_EDGE ( 'NONE', *, *, #81, .F. ) ;
#162 = APPROVAL ( #42, 'UNSPECIFIED' ) ;
#163 = DIRECTION ( 'NONE',  ( 0.0000000000000000000, 0.0000000000000000000, 1.000000000000000000 ) ) ;
#164 = APPROVAL_DATE_TIME ( #141, #72 ) ;
#165 = CC_DESIGN_DATE_AND_TIME_ASSIGNMENT ( #15, #48, ( #60 ) ) ;
#166 = ORIENTED_EDGE ( 'NONE', *, *, #122, .T. ) ;
#167 = AXIS2_PLACEMENT_3D ( 'NONE', #143, #32, #103 ) ;
#168 = PERSON_AND_ORGANIZATION ( #149, #170 ) ;
#169 = PERSON_AND_ORGANIZATION ( #149, #170 ) ;
#170 = ORGANIZATION ( 'UNSPECIFIED', 'UNSPECIFIED', '' ) ;
#171 = LOCAL_TIME ( 15, 15, 16.00000000000000000, #20 ) ;
#172 = ADVANCED_FACE ( 'NONE', ( #80 ), #134, .T. ) ;
#173 = CC_DESIGN_DATE_AND_TIME_ASSIGNMENT ( #147, #46, ( #4 ) ) ;
#174 = DATE_AND_TIME ( #145, #117 ) ;
#175 = CC_DESIGN_PERSON_AND_ORGANIZATION_ASSIGNMENT ( #168, #79, ( #29 ) ) ;
ENDSEC;
END-ISO-10303-21;
