ISO-10303-21;
HEADER;
FILE_DESCRIPTION (( 'STEP AP203' ),
    '1' );
FILE_NAME ('Web Model 68364.STEP',
    '2017-01-31T19:48:50',
    ( '' ),
    ( '' ),
    'SwSTEP 2.0',
    'SolidWorks 2016',
    '' );
FILE_SCHEMA (( 'CONFIG_CONTROL_DESIGN' ));
ENDSEC;

DATA;
#1 = ORIENTED_EDGE ( 'NONE', *, *, #55, .F. ) ;
#2 = PERSON_AND_ORGANIZATION_ROLE ( 'design_owner' ) ;
#3 = CC_DESIGN_PERSON_AND_ORGANIZATION_ASSIGNMENT ( #148, #2, ( #47 ) ) ;
#4 = DIRECTION ( 'NONE',  ( 0.0000000000000000000, 0.0000000000000000000, 1.000000000000000000 ) ) ;
#5 = APPROVAL ( #85, 'UNSPECIFIED' ) ;
#6 = FACE_OUTER_BOUND ( 'NONE', #15, .T. ) ;
#7 = CC_DESIGN_DATE_AND_TIME_ASSIGNMENT ( #93, #84, ( #14 ) ) ;
#8 = CARTESIAN_POINT ( 'NONE',  ( 6.249999999999998200, 7.654042494670955600E-016, 3.000000000000000000 ) ) ;
#9 = DIRECTION ( 'NONE',  ( 0.0000000000000000000, 0.0000000000000000000, 1.000000000000000000 ) ) ;
#10 = ADVANCED_FACE ( 'NONE', ( #6 ), #146, .T. ) ;
#11 = ORIENTED_EDGE ( 'NONE', *, *, #35, .T. ) ;
#12 = LOCAL_TIME ( 14, 48, 50.00000000000000000, #87 ) ;
#13 = DIRECTION ( 'NONE',  ( 1.000000000000000000, 0.0000000000000000000, 0.0000000000000000000 ) ) ;
#14 = PRODUCT_DEFINITION ( 'UNKNOWN', '', #126, #76 ) ;
#15 = EDGE_LOOP ( 'NONE', ( #26, #82 ) ) ;
#16 = CC_DESIGN_APPROVAL ( #5, ( #123 ) ) ;
#17 = AXIS2_PLACEMENT_3D ( 'NONE', #38, #103, #75 ) ;
#18 = MECHANICAL_CONTEXT ( 'NONE', #166, 'mechanical' ) ;
#19 = LOCAL_TIME ( 14, 48, 50.00000000000000000, #88 ) ;
#20 = PERSON_AND_ORGANIZATION_ROLE ( 'design_supplier' ) ;
#21 =( NAMED_UNIT ( * ) PLANE_ANGLE_UNIT ( ) SI_UNIT ( $, .RADIAN. ) );
#22 = CALENDAR_DATE ( 2017, 31, 1 ) ;
#23 = CC_DESIGN_PERSON_AND_ORGANIZATION_ASSIGNMENT ( #160, #95, ( #14 ) ) ;
#24 = APPROVAL_DATE_TIME ( #120, #105 ) ;
#25 = DIRECTION ( 'NONE',  ( 0.0000000000000000000, 0.0000000000000000000, 1.000000000000000000 ) ) ;
#26 = ORIENTED_EDGE ( 'NONE', *, *, #80, .T. ) ;
#27 = DATE_AND_TIME ( #42, #61 ) ;
#28 = CIRCLE ( 'NONE', #127, 6.249999999999998200 ) ;
#29 = CC_DESIGN_DATE_AND_TIME_ASSIGNMENT ( #118, #140, ( #123 ) ) ;
#30 = VECTOR ( 'NONE', #101, 1000.000000000000000 ) ;
#31 = SECURITY_CLASSIFICATION_LEVEL ( 'unclassified' ) ;
#32 = VECTOR ( 'NONE', #152, 1000.000000000000000 ) ;
#33 = DIRECTION ( 'NONE',  ( 0.0000000000000000000, 0.0000000000000000000, 1.000000000000000000 ) ) ;
#34 = EDGE_LOOP ( 'NONE', ( #40, #128 ) ) ;
#35 = EDGE_CURVE ( 'NONE', #36, #132, #54, .T. ) ;
#36 = VERTEX_POINT ( 'NONE', #129 ) ;
#37 = LOCAL_TIME ( 14, 48, 50.00000000000000000, #41 ) ;
#38 = CARTESIAN_POINT ( 'NONE',  ( 0.0000000000000000000, 0.0000000000000000000, 0.0000000000000000000 ) ) ;
#39 = AXIS2_PLACEMENT_3D ( 'NONE', #171, #9, #50 ) ;
#40 = ORIENTED_EDGE ( 'NONE', *, *, #170, .F. ) ;
#41 = COORDINATED_UNIVERSAL_TIME_OFFSET ( 5, 0, .BEHIND. ) ;
#42 = CALENDAR_DATE ( 2017, 31, 1 ) ;
#43 = APPROVAL_STATUS ( 'not_yet_approved' ) ;
#44 = EDGE_LOOP ( 'NONE', ( #144, #69, #96, #154 ) ) ;
#45 = DIRECTION ( 'NONE',  ( 1.000000000000000000, 0.0000000000000000000, 0.0000000000000000000 ) ) ;
#46 = PERSON_AND_ORGANIZATION_ROLE ( 'classification_officer' ) ;
#47 = PRODUCT ( 'Web Model 68364', 'Web Model 68364', '', ( #18 ) ) ;
#48 = CALENDAR_DATE ( 2017, 31, 1 ) ;
#49 = ORGANIZATION ( 'UNSPECIFIED', 'UNSPECIFIED', '' ) ;
#50 = DIRECTION ( 'NONE',  ( 1.000000000000000000, 0.0000000000000000000, -0.0000000000000000000 ) ) ;
#51 = ADVANCED_FACE ( 'NONE', ( #134 ), #156, .T. ) ;
#52 = CARTESIAN_POINT ( 'NONE',  ( -6.249999999999998200, 0.0000000000000000000, 0.0000000000000000000 ) ) ;
#53 = CALENDAR_DATE ( 2017, 31, 1 ) ;
#54 = LINE ( 'NONE', #8, #30 ) ;
#55 = EDGE_CURVE ( 'NONE', #36, #94, #62, .T. ) ;
#56 = APPROVAL_STATUS ( 'not_yet_approved' ) ;
#57 = PRODUCT_DEFINITION_SHAPE ( 'NONE', 'NONE',  #14 ) ;
#58 = CARTESIAN_POINT ( 'NONE',  ( 0.0000000000000000000, 0.0000000000000000000, 0.0000000000000000000 ) ) ;
#59 = ORIENTED_EDGE ( 'NONE', *, *, #83, .T. ) ;
#60 = PERSON ( 'UNSPECIFIED', 'UNSPECIFIED', 'UNSPECIFIED', ('UNSPECIFIED'), ('UNSPECIFIED'), ('UNSPECIFIED') ) ;
#61 = LOCAL_TIME ( 14, 48, 50.00000000000000000, #158 ) ;
#62 = CIRCLE ( 'NONE', #100, 6.249999999999998200 ) ;
#63 = MANIFOLD_SOLID_BREP ( 'Extrude1', #104 ) ;
#64 = ADVANCED_FACE ( 'NONE', ( #99 ), #65, .F. ) ;
#65 = PLANE ( 'NONE',  #17 ) ;
#66 = PERSON_AND_ORGANIZATION ( #60, #49 ) ;
#67 = AXIS2_PLACEMENT_3D ( 'NONE', #153, #33, #45 ) ;
#68 = CIRCLE ( 'NONE', #124, 6.249999999999998200 ) ;
#69 = ORIENTED_EDGE ( 'NONE', *, *, #80, .F. ) ;
#70 = DIRECTION ( 'NONE',  ( 1.000000000000000000, 0.0000000000000000000, 0.0000000000000000000 ) ) ;
#71 = APPLICATION_CONTEXT ( 'configuration controlled 3d designs of mechanical parts and assemblies' ) ;
#72 = VERTEX_POINT ( 'NONE', #52 ) ;
#73 = CC_DESIGN_PERSON_AND_ORGANIZATION_ASSIGNMENT ( #145, #20, ( #126 ) ) ;
#74 = CARTESIAN_POINT ( 'NONE',  ( 0.0000000000000000000, 0.0000000000000000000, 3.000000000000000000 ) ) ;
#75 = DIRECTION ( 'NONE',  ( 1.000000000000000000, 0.0000000000000000000, -0.0000000000000000000 ) ) ;
#76 = DESIGN_CONTEXT ( 'detailed design', #71, 'design' ) ;
#77 = APPROVAL_PERSON_ORGANIZATION ( #66, #91, #165 ) ;
#78 = DIRECTION ( 'NONE',  ( 0.0000000000000000000, 0.0000000000000000000, 1.000000000000000000 ) ) ;
#79 = PERSON_AND_ORGANIZATION ( #60, #49 ) ;
#80 = EDGE_CURVE ( 'NONE', #94, #36, #117, .T. ) ;
#81 = PERSON_AND_ORGANIZATION ( #60, #49 ) ;
#82 = ORIENTED_EDGE ( 'NONE', *, *, #55, .T. ) ;
#83 = EDGE_CURVE ( 'NONE', #132, #72, #28, .T. ) ;
#84 = DATE_TIME_ROLE ( 'creation_date' ) ;
#85 = APPROVAL_STATUS ( 'not_yet_approved' ) ;
#86 = APPROVAL_ROLE ( '' ) ;
#87 = COORDINATED_UNIVERSAL_TIME_OFFSET ( 5, 0, .BEHIND. ) ;
#88 = COORDINATED_UNIVERSAL_TIME_OFFSET ( 5, 0, .BEHIND. ) ;
#89 = DIRECTION ( 'NONE',  ( -1.000000000000000000, 0.0000000000000000000, 0.0000000000000000000 ) ) ;
#90 = DIRECTION ( 'NONE',  ( 1.000000000000000000, 0.0000000000000000000, 0.0000000000000000000 ) ) ;
#91 = APPROVAL ( #43, 'UNSPECIFIED' ) ;
#92 = AXIS2_PLACEMENT_3D ( 'NONE', #157, #161, #89 ) ;
#93 = DATE_AND_TIME ( #53, #19 ) ;
#94 = VERTEX_POINT ( 'NONE', #116 ) ;
#95 = PERSON_AND_ORGANIZATION_ROLE ( 'creator' ) ;
#96 = ORIENTED_EDGE ( 'NONE', *, *, #147, .T. ) ;
#97 = DIRECTION ( 'NONE',  ( 1.000000000000000000, 0.0000000000000000000, 0.0000000000000000000 ) ) ;
#98 = APPROVAL_PERSON_ORGANIZATION ( #172, #5, #125 ) ;
#99 = FACE_OUTER_BOUND ( 'NONE', #34, .T. ) ;
#100 = AXIS2_PLACEMENT_3D ( 'NONE', #74, #25, #90 ) ;
#101 = DIRECTION ( 'NONE',  ( -0.0000000000000000000, -0.0000000000000000000, -1.000000000000000000 ) ) ;
#102 = EDGE_LOOP ( 'NONE', ( #1, #11, #59, #163 ) ) ;
#103 = DIRECTION ( 'NONE',  ( 0.0000000000000000000, 0.0000000000000000000, 1.000000000000000000 ) ) ;
#104 = CLOSED_SHELL ( 'NONE', ( #115, #51, #10, #64 ) ) ;
#105 = APPROVAL ( #56, 'UNSPECIFIED' ) ;
#106 = LINE ( 'NONE', #121, #32 ) ;
#107 =( NAMED_UNIT ( * ) SI_UNIT ( $, .STERADIAN. ) SOLID_ANGLE_UNIT ( ) );
#108 = AXIS2_PLACEMENT_3D ( 'NONE', #143, #78, #13 ) ;
#109 = APPROVAL_PERSON_ORGANIZATION ( #79, #105, #86 ) ;
#110 = DIRECTION ( 'NONE',  ( 0.0000000000000000000, 0.0000000000000000000, 1.000000000000000000 ) ) ;
#111 = CARTESIAN_POINT ( 'NONE',  ( 0.0000000000000000000, 0.0000000000000000000, 0.0000000000000000000 ) ) ;
#112 = CC_DESIGN_APPROVAL ( #105, ( #14 ) ) ;
#113 = PERSON_AND_ORGANIZATION ( #60, #49 ) ;
#114 = ADVANCED_BREP_SHAPE_REPRESENTATION ( 'Web Model 68364', ( #63, #67 ), #137 ) ;
#115 = ADVANCED_FACE ( 'NONE', ( #168 ), #174, .T. ) ;
#116 = CARTESIAN_POINT ( 'NONE',  ( -6.249999999999998200, 0.0000000000000000000, 3.000000000000000000 ) ) ;
#117 = CIRCLE ( 'NONE', #108, 6.249999999999998200 ) ;
#118 = DATE_AND_TIME ( #22, #133 ) ;
#119 = APPLICATION_PROTOCOL_DEFINITION ( 'international standard', 'config_control_design', 1994, #166 ) ;
#120 = DATE_AND_TIME ( #164, #37 ) ;
#121 = CARTESIAN_POINT ( 'NONE',  ( -6.249999999999998200, 0.0000000000000000000, 3.000000000000000000 ) ) ;
#122 = APPLICATION_PROTOCOL_DEFINITION ( 'international standard', 'config_control_design', 1994, #71 ) ;
#123 = SECURITY_CLASSIFICATION ( '', '', #31 ) ;
#124 = AXIS2_PLACEMENT_3D ( 'NONE', #111, #110, #70 ) ;
#125 = APPROVAL_ROLE ( '' ) ;
#126 = PRODUCT_DEFINITION_FORMATION_WITH_SPECIFIED_SOURCE ( 'ANY', '', #47, .NOT_KNOWN. ) ;
#127 = AXIS2_PLACEMENT_3D ( 'NONE', #58, #4, #97 ) ;
#128 = ORIENTED_EDGE ( 'NONE', *, *, #83, .F. ) ;
#129 = CARTESIAN_POINT ( 'NONE',  ( 6.249999999999998200, 7.654042494670955600E-016, 3.000000000000000000 ) ) ;
#130 = UNCERTAINTY_MEASURE_WITH_UNIT (LENGTH_MEASURE( 1.000000000000000100E-005 ), #141, 'distance_accuracy_value', 'NONE');
#131 = CC_DESIGN_PERSON_AND_ORGANIZATION_ASSIGNMENT ( #81, #46, ( #123 ) ) ;
#132 = VERTEX_POINT ( 'NONE', #138 ) ;
#133 = LOCAL_TIME ( 14, 48, 50.00000000000000000, #142 ) ;
#134 = FACE_OUTER_BOUND ( 'NONE', #44, .T. ) ;
#135 = PERSON_AND_ORGANIZATION_ROLE ( 'creator' ) ;
#136 = PRODUCT_RELATED_PRODUCT_CATEGORY ( 'detail', '', ( #47 ) ) ;
#137 =( GEOMETRIC_REPRESENTATION_CONTEXT ( 3 ) GLOBAL_UNCERTAINTY_ASSIGNED_CONTEXT ( ( #130 ) ) GLOBAL_UNIT_ASSIGNED_CONTEXT ( ( #141, #21, #107 ) ) REPRESENTATION_CONTEXT ( 'NONE', 'WORKASPACE' ) );
#138 = CARTESIAN_POINT ( 'NONE',  ( 6.249999999999998200, 7.654042494670955600E-016, 0.0000000000000000000 ) ) ;
#139 = SHAPE_DEFINITION_REPRESENTATION ( #57, #114 ) ;
#140 = DATE_TIME_ROLE ( 'classification_date' ) ;
#141 =( LENGTH_UNIT ( ) NAMED_UNIT ( * ) SI_UNIT ( .MILLI., .METRE. ) );
#142 = COORDINATED_UNIVERSAL_TIME_OFFSET ( 5, 0, .BEHIND. ) ;
#143 = CARTESIAN_POINT ( 'NONE',  ( 0.0000000000000000000, 0.0000000000000000000, 3.000000000000000000 ) ) ;
#144 = ORIENTED_EDGE ( 'NONE', *, *, #35, .F. ) ;
#145 = PERSON_AND_ORGANIZATION ( #60, #49 ) ;
#146 = PLANE ( 'NONE',  #39 ) ;
#147 = EDGE_CURVE ( 'NONE', #94, #72, #106, .T. ) ;
#148 = PERSON_AND_ORGANIZATION ( #60, #49 ) ;
#149 = DATE_AND_TIME ( #48, #12 ) ;
#150 = CARTESIAN_POINT ( 'NONE',  ( 0.0000000000000000000, 0.0000000000000000000, 3.000000000000000000 ) ) ;
#151 = DIRECTION ( 'NONE',  ( -0.0000000000000000000, -0.0000000000000000000, -1.000000000000000000 ) ) ;
#152 = DIRECTION ( 'NONE',  ( -0.0000000000000000000, -0.0000000000000000000, -1.000000000000000000 ) ) ;
#153 = CARTESIAN_POINT ( 'NONE',  ( 0.0000000000000000000, 0.0000000000000000000, 0.0000000000000000000 ) ) ;
#154 = ORIENTED_EDGE ( 'NONE', *, *, #170, .T. ) ;
#155 = APPROVAL_DATE_TIME ( #27, #91 ) ;
#156 = CYLINDRICAL_SURFACE ( 'NONE', #92, 6.249999999999998200 ) ;
#157 = CARTESIAN_POINT ( 'NONE',  ( 0.0000000000000000000, 0.0000000000000000000, 3.000000000000000000 ) ) ;
#158 = COORDINATED_UNIVERSAL_TIME_OFFSET ( 5, 0, .BEHIND. ) ;
#159 = CC_DESIGN_PERSON_AND_ORGANIZATION_ASSIGNMENT ( #113, #135, ( #126 ) ) ;
#160 = PERSON_AND_ORGANIZATION ( #60, #49 ) ;
#161 = DIRECTION ( 'NONE',  ( -0.0000000000000000000, -0.0000000000000000000, -1.000000000000000000 ) ) ;
#162 = AXIS2_PLACEMENT_3D ( 'NONE', #150, #151, #167 ) ;
#163 = ORIENTED_EDGE ( 'NONE', *, *, #147, .F. ) ;
#164 = CALENDAR_DATE ( 2017, 31, 1 ) ;
#165 = APPROVAL_ROLE ( '' ) ;
#166 = APPLICATION_CONTEXT ( 'configuration controlled 3d designs of mechanical parts and assemblies' ) ;
#167 = DIRECTION ( 'NONE',  ( -1.000000000000000000, 0.0000000000000000000, 0.0000000000000000000 ) ) ;
#168 = FACE_OUTER_BOUND ( 'NONE', #102, .T. ) ;
#169 = CC_DESIGN_SECURITY_CLASSIFICATION ( #123, ( #126 ) ) ;
#170 = EDGE_CURVE ( 'NONE', #72, #132, #68, .T. ) ;
#171 = CARTESIAN_POINT ( 'NONE',  ( 0.0000000000000000000, 0.0000000000000000000, 3.000000000000000000 ) ) ;
#172 = PERSON_AND_ORGANIZATION ( #60, #49 ) ;
#173 = CC_DESIGN_APPROVAL ( #91, ( #126 ) ) ;
#174 = CYLINDRICAL_SURFACE ( 'NONE', #162, 6.249999999999998200 ) ;
#175 = APPROVAL_DATE_TIME ( #149, #5 ) ;
ENDSEC;
END-ISO-10303-21;
