ISO-10303-21;
HEADER;
FILE_DESCRIPTION (( 'STEP AP203' ),
    '1' );
FILE_NAME ('Web Model 46067_46073.step',
    '2017-07-13T13:27:35',
    ( '' ),
    ( '' ),
    'SwSTEP 2.0',
    'SolidWorks 2016',
    '' );
FILE_SCHEMA (( 'CONFIG_CONTROL_DESIGN' ));
ENDSEC;

DATA;
#1 = LINE ( 'NONE', #129, #216 ) ;
#2 = EDGE_CURVE ( 'NONE', #143, #158, #35, .T. ) ;
#3 = CARTESIAN_POINT ( 'NONE',  ( -6.349999999999999600, -6.349999999999999600, -1.500000000000000000 ) ) ;
#4 = DIRECTION ( 'NONE',  ( 0.0000000000000000000, -0.0000000000000000000, -1.000000000000000000 ) ) ;
#5 = ORIENTED_EDGE ( 'NONE', *, *, #193, .T. ) ;
#6 = DIRECTION ( 'NONE',  ( 0.0000000000000000000, 0.0000000000000000000, -1.000000000000000000 ) ) ;
#7 = APPROVAL_STATUS ( 'not_yet_approved' ) ;
#8 = VECTOR ( 'NONE', #136, 1000.000000000000000 ) ;
#9 = VERTEX_POINT ( 'NONE', #24 ) ;
#10 = CC_DESIGN_PERSON_AND_ORGANIZATION_ASSIGNMENT ( #26, #228, ( #48 ) ) ;
#11 = ADVANCED_FACE ( 'NONE', ( #166 ), #92, .F. ) ;
#12 = DIRECTION ( 'NONE',  ( 0.0000000000000000000, 1.000000000000000000, 0.0000000000000000000 ) ) ;
#13 = PERSON_AND_ORGANIZATION ( #68, #63 ) ;
#14 = ORIENTED_EDGE ( 'NONE', *, *, #187, .F. ) ;
#15 = LOCAL_TIME ( 9, 27, 35.00000000000000000, #19 ) ;
#16 = EDGE_LOOP ( 'NONE', ( #70, #220, #69, #23 ) ) ;
#17 = EDGE_CURVE ( 'NONE', #198, #162, #153, .T. ) ;
#18 = LOCAL_TIME ( 9, 27, 35.00000000000000000, #159 ) ;
#19 = COORDINATED_UNIVERSAL_TIME_OFFSET ( 5, 0, .BEHIND. ) ;
#20 = UNCERTAINTY_MEASURE_WITH_UNIT (LENGTH_MEASURE( 1.000000000000000100E-005 ), #78, 'distance_accuracy_value', 'NONE');
#21 = DIRECTION ( 'NONE',  ( -0.0000000000000000000, -1.000000000000000000, -0.0000000000000000000 ) ) ;
#22 = ORIENTED_EDGE ( 'NONE', *, *, #34, .T. ) ;
#23 = ORIENTED_EDGE ( 'NONE', *, *, #163, .T. ) ;
#24 = CARTESIAN_POINT ( 'NONE',  ( -6.349999999999999600, 6.349999999999999600, 1.500000000000000000 ) ) ;
#25 = CARTESIAN_POINT ( 'NONE',  ( -6.349999999999999600, -6.349999999999999600, 1.500000000000000000 ) ) ;
#26 = PERSON_AND_ORGANIZATION ( #68, #63 ) ;
#27 = CARTESIAN_POINT ( 'NONE',  ( -6.349999999999999600, -6.349999999999999600, 1.500000000000000000 ) ) ;
#28 = CARTESIAN_POINT ( 'NONE',  ( -6.349999999999999600, 6.349999999999999600, -1.500000000000000000 ) ) ;
#29 = CARTESIAN_POINT ( 'NONE',  ( 6.349999999999999600, -6.349999999999999600, -1.500000000000000000 ) ) ;
#30 = PERSON_AND_ORGANIZATION ( #68, #63 ) ;
#31 = MANIFOLD_SOLID_BREP ( 'Boss-Extrude1', #90 ) ;
#32 = DATE_AND_TIME ( #81, #208 ) ;
#33 = ORIENTED_EDGE ( 'NONE', *, *, #2, .F. ) ;
#34 = EDGE_CURVE ( 'NONE', #9, #198, #127, .T. ) ;
#35 = LINE ( 'NONE', #36, #41 ) ;
#36 = CARTESIAN_POINT ( 'NONE',  ( 6.349999999999999600, 6.349999999999999600, 1.500000000000000000 ) ) ;
#37 = CARTESIAN_POINT ( 'NONE',  ( 0.0000000000000000000, 0.0000000000000000000, 1.500000000000000000 ) ) ;
#38 =( GEOMETRIC_REPRESENTATION_CONTEXT ( 3 ) GLOBAL_UNCERTAINTY_ASSIGNED_CONTEXT ( ( #20 ) ) GLOBAL_UNIT_ASSIGNED_CONTEXT ( ( #78, #43, #173 ) ) REPRESENTATION_CONTEXT ( 'NONE', 'WORKASPACE' ) );
#39 = DIRECTION ( 'NONE',  ( 1.000000000000000000, 0.0000000000000000000, 0.0000000000000000000 ) ) ;
#40 = CALENDAR_DATE ( 2017, 13, 7 ) ;
#41 = VECTOR ( 'NONE', #74, 1000.000000000000000 ) ;
#42 = PLANE ( 'NONE',  #112 ) ;
#43 =( NAMED_UNIT ( * ) PLANE_ANGLE_UNIT ( ) SI_UNIT ( $, .RADIAN. ) );
#44 = EDGE_LOOP ( 'NONE', ( #114, #5, #22, #107 ) ) ;
#45 = DIRECTION ( 'NONE',  ( -0.0000000000000000000, -1.000000000000000000, -0.0000000000000000000 ) ) ;
#46 = APPROVAL_ROLE ( '' ) ;
#47 = EDGE_LOOP ( 'NONE', ( #202, #165, #14, #109 ) ) ;
#48 = PRODUCT ( 'Web Model 46067_46073', 'Web Model 46067_46073', '', ( #121 ) ) ;
#49 = DATE_TIME_ROLE ( 'classification_date' ) ;
#50 = LINE ( 'NONE', #29, #131 ) ;
#51 = CC_DESIGN_APPROVAL ( #102, ( #84 ) ) ;
#52 = EDGE_LOOP ( 'NONE', ( #194, #33, #237, #146 ) ) ;
#53 = COORDINATED_UNIVERSAL_TIME_OFFSET ( 5, 0, .BEHIND. ) ;
#54 = VERTEX_POINT ( 'NONE', #3 ) ;
#55 = VECTOR ( 'NONE', #171, 1000.000000000000000 ) ;
#56 = CARTESIAN_POINT ( 'NONE',  ( -6.349999999999999600, -6.349999999999999600, 1.500000000000000000 ) ) ;
#57 = APPROVAL_PERSON_ORGANIZATION ( #110, #223, #46 ) ;
#58 = ORIENTED_EDGE ( 'NONE', *, *, #17, .F. ) ;
#59 = DIRECTION ( 'NONE',  ( -1.000000000000000000, 0.0000000000000000000, -0.0000000000000000000 ) ) ;
#60 = PERSON_AND_ORGANIZATION_ROLE ( 'creator' ) ;
#61 = APPROVAL_DATE_TIME ( #147, #223 ) ;
#62 = CC_DESIGN_SECURITY_CLASSIFICATION ( #219, ( #227 ) ) ;
#63 = ORGANIZATION ( 'UNSPECIFIED', 'UNSPECIFIED', '' ) ;
#64 = PERSON_AND_ORGANIZATION_ROLE ( 'design_supplier' ) ;
#65 = DIRECTION ( 'NONE',  ( -1.000000000000000000, 0.0000000000000000000, 0.0000000000000000000 ) ) ;
#66 = CARTESIAN_POINT ( 'NONE',  ( 6.349999999999999600, -6.349999999999999600, -1.500000000000000000 ) ) ;
#67 = PERSON_AND_ORGANIZATION ( #68, #63 ) ;
#68 = PERSON ( 'UNSPECIFIED', 'UNSPECIFIED', 'UNSPECIFIED', ('UNSPECIFIED'), ('UNSPECIFIED'), ('UNSPECIFIED') ) ;
#69 = ORIENTED_EDGE ( 'NONE', *, *, #34, .F. ) ;
#70 = ORIENTED_EDGE ( 'NONE', *, *, #187, .T. ) ;
#71 = ORIENTED_EDGE ( 'NONE', *, *, #163, .F. ) ;
#72 = SHAPE_DEFINITION_REPRESENTATION ( #151, #217 ) ;
#73 = CARTESIAN_POINT ( 'NONE',  ( 6.349999999999999600, 6.349999999999999600, 1.500000000000000000 ) ) ;
#74 = DIRECTION ( 'NONE',  ( -0.0000000000000000000, -0.0000000000000000000, -1.000000000000000000 ) ) ;
#75 = FACE_OUTER_BOUND ( 'NONE', #52, .T. ) ;
#76 = CARTESIAN_POINT ( 'NONE',  ( 0.0000000000000000000, 0.0000000000000000000, 0.0000000000000000000 ) ) ;
#77 = FACE_OUTER_BOUND ( 'NONE', #44, .T. ) ;
#78 =( LENGTH_UNIT ( ) NAMED_UNIT ( * ) SI_UNIT ( .MILLI., .METRE. ) );
#79 = CARTESIAN_POINT ( 'NONE',  ( 6.349999999999999600, -6.349999999999999600, 1.500000000000000000 ) ) ;
#80 = ADVANCED_FACE ( 'NONE', ( #77 ), #169, .F. ) ;
#81 = CALENDAR_DATE ( 2017, 13, 7 ) ;
#82 = DIRECTION ( 'NONE',  ( 0.0000000000000000000, 0.0000000000000000000, -1.000000000000000000 ) ) ;
#83 = ORIENTED_EDGE ( 'NONE', *, *, #176, .T. ) ;
#84 = PRODUCT_DEFINITION ( 'UNKNOWN', '', #227, #117 ) ;
#85 = PERSON_AND_ORGANIZATION ( #68, #63 ) ;
#86 = EDGE_CURVE ( 'NONE', #54, #200, #1, .T. ) ;
#87 = PRODUCT_RELATED_PRODUCT_CATEGORY ( 'detail', '', ( #48 ) ) ;
#88 = LOCAL_TIME ( 9, 27, 35.00000000000000000, #53 ) ;
#89 = VECTOR ( 'NONE', #225, 1000.000000000000000 ) ;
#90 = CLOSED_SHELL ( 'NONE', ( #226, #11, #157, #213, #80, #177 ) ) ;
#91 = AXIS2_PLACEMENT_3D ( 'NONE', #27, #98, #210 ) ;
#92 = PLANE ( 'NONE',  #126 ) ;
#93 = DIRECTION ( 'NONE',  ( -0.0000000000000000000, -0.0000000000000000000, -1.000000000000000000 ) ) ;
#94 = CARTESIAN_POINT ( 'NONE',  ( 6.349999999999999600, 6.349999999999999600, -1.500000000000000000 ) ) ;
#95 = VERTEX_POINT ( 'NONE', #96 ) ;
#96 = CARTESIAN_POINT ( 'NONE',  ( -6.349999999999999600, 6.349999999999999600, -1.500000000000000000 ) ) ;
#97 = LOCAL_TIME ( 9, 27, 35.00000000000000000, #108 ) ;
#98 = DIRECTION ( 'NONE',  ( 0.0000000000000000000, 1.000000000000000000, 0.0000000000000000000 ) ) ;
#99 = VECTOR ( 'NONE', #39, 1000.000000000000000 ) ;
#100 = DIRECTION ( 'NONE',  ( 1.000000000000000000, 0.0000000000000000000, 0.0000000000000000000 ) ) ;
#101 = DIRECTION ( 'NONE',  ( 0.0000000000000000000, 0.0000000000000000000, 1.000000000000000000 ) ) ;
#102 = APPROVAL ( #150, 'UNSPECIFIED' ) ;
#103 = DATE_AND_TIME ( #138, #18 ) ;
#104 = PERSON_AND_ORGANIZATION_ROLE ( 'classification_officer' ) ;
#105 = VECTOR ( 'NONE', #93, 1000.000000000000000 ) ;
#106 = CC_DESIGN_APPROVAL ( #205, ( #227 ) ) ;
#107 = ORIENTED_EDGE ( 'NONE', *, *, #17, .T. ) ;
#108 = COORDINATED_UNIVERSAL_TIME_OFFSET ( 5, 0, .BEHIND. ) ;
#109 = ORIENTED_EDGE ( 'NONE', *, *, #176, .F. ) ;
#110 = PERSON_AND_ORGANIZATION ( #68, #63 ) ;
#111 = PERSON_AND_ORGANIZATION ( #68, #63 ) ;
#112 = AXIS2_PLACEMENT_3D ( 'NONE', #122, #65, #101 ) ;
#113 = CARTESIAN_POINT ( 'NONE',  ( -6.349999999999999600, 6.349999999999999600, 1.500000000000000000 ) ) ;
#114 = ORIENTED_EDGE ( 'NONE', *, *, #204, .T. ) ;
#115 = CC_DESIGN_DATE_AND_TIME_ASSIGNMENT ( #215, #49, ( #219 ) ) ;
#116 = CARTESIAN_POINT ( 'NONE',  ( -6.349999999999999600, -6.349999999999999600, 1.500000000000000000 ) ) ;
#117 = DESIGN_CONTEXT ( 'detailed design', #118, 'design' ) ;
#118 = APPLICATION_CONTEXT ( 'configuration controlled 3d designs of mechanical parts and assemblies' ) ;
#119 = FACE_OUTER_BOUND ( 'NONE', #124, .T. ) ;
#120 = APPLICATION_PROTOCOL_DEFINITION ( 'international standard', 'config_control_design', 1994, #118 ) ;
#121 = MECHANICAL_CONTEXT ( 'NONE', #152, 'mechanical' ) ;
#122 = CARTESIAN_POINT ( 'NONE',  ( 6.349999999999999600, -6.349999999999999600, 1.500000000000000000 ) ) ;
#123 = CC_DESIGN_PERSON_AND_ORGANIZATION_ASSIGNMENT ( #85, #60, ( #84 ) ) ;
#124 = EDGE_LOOP ( 'NONE', ( #181, #212, #58, #186 ) ) ;
#125 = VECTOR ( 'NONE', #209, 1000.000000000000000 ) ;
#126 = AXIS2_PLACEMENT_3D ( 'NONE', #113, #168, #4 ) ;
#127 = LINE ( 'NONE', #116, #189 ) ;
#128 = COORDINATED_UNIVERSAL_TIME_OFFSET ( 5, 0, .BEHIND. ) ;
#129 = CARTESIAN_POINT ( 'NONE',  ( -6.349999999999999600, -6.349999999999999600, -1.500000000000000000 ) ) ;
#130 = DIRECTION ( 'NONE',  ( 1.000000000000000000, 0.0000000000000000000, 0.0000000000000000000 ) ) ;
#131 = VECTOR ( 'NONE', #196, 1000.000000000000000 ) ;
#132 = APPROVAL_ROLE ( '' ) ;
#133 = APPROVAL_DATE_TIME ( #218, #102 ) ;
#134 = ORIENTED_EDGE ( 'NONE', *, *, #193, .F. ) ;
#135 = CARTESIAN_POINT ( 'NONE',  ( 0.0000000000000000000, 0.0000000000000000000, -1.500000000000000000 ) ) ;
#136 = DIRECTION ( 'NONE',  ( -1.000000000000000000, -0.0000000000000000000, -0.0000000000000000000 ) ) ;
#137 = CC_DESIGN_DATE_AND_TIME_ASSIGNMENT ( #32, #190, ( #84 ) ) ;
#138 = CALENDAR_DATE ( 2017, 13, 7 ) ;
#139 = LINE ( 'NONE', #167, #105 ) ;
#140 = EDGE_LOOP ( 'NONE', ( #83, #71, #134, #175 ) ) ;
#141 = VECTOR ( 'NONE', #12, 1000.000000000000000 ) ;
#142 = LINE ( 'NONE', #79, #141 ) ;
#143 = VERTEX_POINT ( 'NONE', #73 ) ;
#144 = AXIS2_PLACEMENT_3D ( 'NONE', #37, #6, #59 ) ;
#145 = CARTESIAN_POINT ( 'NONE',  ( 6.349999999999999600, -6.349999999999999600, 1.500000000000000000 ) ) ;
#146 = ORIENTED_EDGE ( 'NONE', *, *, #211, .T. ) ;
#147 = DATE_AND_TIME ( #40, #97 ) ;
#148 = CC_DESIGN_PERSON_AND_ORGANIZATION_ASSIGNMENT ( #160, #104, ( #219 ) ) ;
#149 = DIRECTION ( 'NONE',  ( 0.0000000000000000000, 0.0000000000000000000, -1.000000000000000000 ) ) ;
#150 = APPROVAL_STATUS ( 'not_yet_approved' ) ;
#151 = PRODUCT_DEFINITION_SHAPE ( 'NONE', 'NONE',  #84 ) ;
#152 = APPLICATION_CONTEXT ( 'configuration controlled 3d designs of mechanical parts and assemblies' ) ;
#153 = LINE ( 'NONE', #222, #99 ) ;
#154 = DIRECTION ( 'NONE',  ( -1.000000000000000000, 0.0000000000000000000, -0.0000000000000000000 ) ) ;
#155 = CC_DESIGN_PERSON_AND_ORGANIZATION_ASSIGNMENT ( #67, #64, ( #227 ) ) ;
#156 = CARTESIAN_POINT ( 'NONE',  ( -6.349999999999999600, -6.349999999999999600, -1.500000000000000000 ) ) ;
#157 = ADVANCED_FACE ( 'NONE', ( #235 ), #206, .F. ) ;
#158 = VERTEX_POINT ( 'NONE', #94 ) ;
#159 = COORDINATED_UNIVERSAL_TIME_OFFSET ( 5, 0, .BEHIND. ) ;
#160 = PERSON_AND_ORGANIZATION ( #68, #63 ) ;
#161 = LINE ( 'NONE', #191, #125 ) ;
#162 = VERTEX_POINT ( 'NONE', #145 ) ;
#163 = EDGE_CURVE ( 'NONE', #9, #95, #139, .T. ) ;
#164 = LINE ( 'NONE', #28, #55 ) ;
#165 = ORIENTED_EDGE ( 'NONE', *, *, #86, .F. ) ;
#166 = FACE_OUTER_BOUND ( 'NONE', #140, .T. ) ;
#167 = CARTESIAN_POINT ( 'NONE',  ( -6.349999999999999600, 6.349999999999999600, 1.500000000000000000 ) ) ;
#168 = DIRECTION ( 'NONE',  ( 0.0000000000000000000, -1.000000000000000000, 0.0000000000000000000 ) ) ;
#169 = PLANE ( 'NONE',  #144 ) ;
#170 = DIRECTION ( 'NONE',  ( 0.0000000000000000000, 0.0000000000000000000, 1.000000000000000000 ) ) ;
#171 = DIRECTION ( 'NONE',  ( -1.000000000000000000, -0.0000000000000000000, -0.0000000000000000000 ) ) ;
#172 = PERSON_AND_ORGANIZATION_ROLE ( 'creator' ) ;
#173 =( NAMED_UNIT ( * ) SI_UNIT ( $, .STERADIAN. ) SOLID_ANGLE_UNIT ( ) );
#174 = CARTESIAN_POINT ( 'NONE',  ( -6.349999999999999600, 6.349999999999999600, 1.500000000000000000 ) ) ;
#175 = ORIENTED_EDGE ( 'NONE', *, *, #2, .T. ) ;
#176 = EDGE_CURVE ( 'NONE', #158, #95, #164, .T. ) ;
#177 = ADVANCED_FACE ( 'NONE', ( #184 ), #229, .T. ) ;
#178 = APPROVAL_STATUS ( 'not_yet_approved' ) ;
#179 = CC_DESIGN_PERSON_AND_ORGANIZATION_ASSIGNMENT ( #13, #172, ( #227 ) ) ;
#180 = EDGE_CURVE ( 'NONE', #200, #158, #50, .T. ) ;
#181 = ORIENTED_EDGE ( 'NONE', *, *, #86, .T. ) ;
#182 = AXIS2_PLACEMENT_3D ( 'NONE', #76, #170, #100 ) ;
#183 = APPROVAL_DATE_TIME ( #103, #205 ) ;
#184 = FACE_OUTER_BOUND ( 'NONE', #47, .T. ) ;
#185 = CALENDAR_DATE ( 2017, 13, 7 ) ;
#186 = ORIENTED_EDGE ( 'NONE', *, *, #230, .T. ) ;
#187 = EDGE_CURVE ( 'NONE', #95, #54, #232, .T. ) ;
#188 = DIRECTION ( 'NONE',  ( 1.000000000000000000, 0.0000000000000000000, 0.0000000000000000000 ) ) ;
#189 = VECTOR ( 'NONE', #21, 1000.000000000000000 ) ;
#190 = DATE_TIME_ROLE ( 'creation_date' ) ;
#191 = CARTESIAN_POINT ( 'NONE',  ( 6.349999999999999600, -6.349999999999999600, 1.500000000000000000 ) ) ;
#192 = PLANE ( 'NONE',  #91 ) ;
#193 = EDGE_CURVE ( 'NONE', #143, #9, #203, .T. ) ;
#194 = ORIENTED_EDGE ( 'NONE', *, *, #180, .T. ) ;
#195 = APPLICATION_PROTOCOL_DEFINITION ( 'international standard', 'config_control_design', 1994, #152 ) ;
#196 = DIRECTION ( 'NONE',  ( 0.0000000000000000000, 1.000000000000000000, 0.0000000000000000000 ) ) ;
#197 = AXIS2_PLACEMENT_3D ( 'NONE', #135, #82, #154 ) ;
#198 = VERTEX_POINT ( 'NONE', #25 ) ;
#199 = LINE ( 'NONE', #233, #89 ) ;
#200 = VERTEX_POINT ( 'NONE', #66 ) ;
#201 = AXIS2_PLACEMENT_3D ( 'NONE', #56, #188, #149 ) ;
#202 = ORIENTED_EDGE ( 'NONE', *, *, #180, .F. ) ;
#203 = LINE ( 'NONE', #174, #8 ) ;
#204 = EDGE_CURVE ( 'NONE', #162, #143, #142, .T. ) ;
#205 = APPROVAL ( #7, 'UNSPECIFIED' ) ;
#206 = PLANE ( 'NONE',  #201 ) ;
#207 = CALENDAR_DATE ( 2017, 13, 7 ) ;
#208 = LOCAL_TIME ( 9, 27, 35.00000000000000000, #128 ) ;
#209 = DIRECTION ( 'NONE',  ( -0.0000000000000000000, -0.0000000000000000000, -1.000000000000000000 ) ) ;
#210 = DIRECTION ( 'NONE',  ( 0.0000000000000000000, -0.0000000000000000000, 1.000000000000000000 ) ) ;
#211 = EDGE_CURVE ( 'NONE', #162, #200, #161, .T. ) ;
#212 = ORIENTED_EDGE ( 'NONE', *, *, #211, .F. ) ;
#213 = ADVANCED_FACE ( 'NONE', ( #119 ), #192, .F. ) ;
#214 = SECURITY_CLASSIFICATION_LEVEL ( 'unclassified' ) ;
#215 = DATE_AND_TIME ( #207, #88 ) ;
#216 = VECTOR ( 'NONE', #130, 1000.000000000000000 ) ;
#217 = ADVANCED_BREP_SHAPE_REPRESENTATION ( 'Web Model 46067_46073', ( #31, #182 ), #38 ) ;
#218 = DATE_AND_TIME ( #185, #15 ) ;
#219 = SECURITY_CLASSIFICATION ( '', '', #214 ) ;
#220 = ORIENTED_EDGE ( 'NONE', *, *, #230, .F. ) ;
#221 = APPROVAL_PERSON_ORGANIZATION ( #111, #205, #132 ) ;
#222 = CARTESIAN_POINT ( 'NONE',  ( -6.349999999999999600, -6.349999999999999600, 1.500000000000000000 ) ) ;
#223 = APPROVAL ( #178, 'UNSPECIFIED' ) ;
#224 = VECTOR ( 'NONE', #45, 1000.000000000000000 ) ;
#225 = DIRECTION ( 'NONE',  ( -0.0000000000000000000, -0.0000000000000000000, -1.000000000000000000 ) ) ;
#226 = ADVANCED_FACE ( 'NONE', ( #75 ), #42, .F. ) ;
#227 = PRODUCT_DEFINITION_FORMATION_WITH_SPECIFIED_SOURCE ( 'ANY', '', #48, .NOT_KNOWN. ) ;
#228 = PERSON_AND_ORGANIZATION_ROLE ( 'design_owner' ) ;
#229 = PLANE ( 'NONE',  #197 ) ;
#230 = EDGE_CURVE ( 'NONE', #198, #54, #199, .T. ) ;
#231 = APPROVAL_ROLE ( '' ) ;
#232 = LINE ( 'NONE', #156, #224 ) ;
#233 = CARTESIAN_POINT ( 'NONE',  ( -6.349999999999999600, -6.349999999999999600, 1.500000000000000000 ) ) ;
#234 = CC_DESIGN_APPROVAL ( #223, ( #219 ) ) ;
#235 = FACE_OUTER_BOUND ( 'NONE', #16, .T. ) ;
#236 = APPROVAL_PERSON_ORGANIZATION ( #30, #102, #231 ) ;
#237 = ORIENTED_EDGE ( 'NONE', *, *, #204, .F. ) ;
ENDSEC;
END-ISO-10303-21;
