ISO-10303-21;
HEADER;
FILE_DESCRIPTION (( 'STEP AP203' ),
    '1' );
FILE_NAME ('4353-E0W.STEP',
    '2015-06-17T20:54:31',
    ( 'admin' ),
    ( '' ),
    'SwSTEP 2.0',
    'SolidWorks 2014',
    '' );
FILE_SCHEMA (( 'CONFIG_CONTROL_DESIGN' ));
ENDSEC;

DATA;
#1 = ORIENTED_EDGE ( 'NONE', *, *, #207, .T. ) ;
#2 = CC_DESIGN_SECURITY_CLASSIFICATION ( #111, ( #192 ) ) ;
#3 = DIRECTION ( 'NONE',  ( 1.000000000000000000, 0.0000000000000000000, 0.0000000000000000000 ) ) ;
#4 = VECTOR ( 'NONE', #185, 1000.000000000000100 ) ;
#5 = DIRECTION ( 'NONE',  ( 0.0000000000000000000, 0.0000000000000000000, -1.000000000000000000 ) ) ;
#6 = VECTOR ( 'NONE', #183, 1000.000000000000000 ) ;
#7 = CARTESIAN_POINT ( 'NONE',  ( 0.0000000000000000000, 0.0000000000000000000, 0.8903051846472231900 ) ) ;
#8 = CARTESIAN_POINT ( 'NONE',  ( 0.0000000000000000000, 12.45903468663334500, 2.609694815352775300 ) ) ;
#9 = AXIS2_PLACEMENT_3D ( 'NONE', #321, #286, #156 ) ;
#10 = APPROVAL_DATE_TIME ( #19, #147 ) ;
#11 = PERSON_AND_ORGANIZATION ( #71, #42 ) ;
#12 = DIRECTION ( 'NONE',  ( 0.0000000000000000000, 0.0000000000000000000, -1.000000000000000000 ) ) ;
#13 = CC_DESIGN_PERSON_AND_ORGANIZATION_ASSIGNMENT ( #299, #211, ( #111 ) ) ;
#14 = AXIS2_PLACEMENT_3D ( 'NONE', #273, #164, #74 ) ;
#15 = DIRECTION ( 'NONE',  ( 0.0000000000000000000, 0.0000000000000000000, -1.000000000000000000 ) ) ;
#16 = CIRCLE ( 'NONE', #17, 12.45903468663333400 ) ;
#17 = AXIS2_PLACEMENT_3D ( 'NONE', #242, #197, #280 ) ;
#18 = EDGE_LOOP ( 'NONE', ( #308, #247, #48, #180 ) ) ;
#19 = DATE_AND_TIME ( #132, #83 ) ;
#20 = SECURITY_CLASSIFICATION_LEVEL ( 'unclassified' ) ;
#21 = AXIS2_PLACEMENT_3D ( 'NONE', #258, #241, #265 ) ;
#22 = AXIS2_PLACEMENT_3D ( 'NONE', #134, #15, #284 ) ;
#23 = APPROVAL ( #140, 'UNSPECIFIED' ) ;
#24 = DIRECTION ( 'NONE',  ( -0.0000000000000000000, -0.0000000000000000000, 1.000000000000000000 ) ) ;
#25 = EDGE_LOOP ( 'NONE', ( #256, #305, #47, #264 ) ) ;
#26 = AXIS2_PLACEMENT_3D ( 'NONE', #46, #101, #43 ) ;
#27 = CARTESIAN_POINT ( 'NONE',  ( -12.69999999999999900, 1.555301434917138400E-015, -2.359694815352780100 ) ) ;
#28 = AXIS2_PLACEMENT_3D ( 'NONE', #254, #107, #5 ) ;
#29 = VECTOR ( 'NONE', #82, 1000.000000000000100 ) ;
#30 = FACE_OUTER_BOUND ( 'NONE', #312, .T. ) ;
#31 = AXIS2_PLACEMENT_3D ( 'NONE', #229, #208, #99 ) ;
#32 = DATE_AND_TIME ( #182, #172 ) ;
#33 = EDGE_CURVE ( 'NONE', #260, #253, #188, .T. ) ;
#34 = CONICAL_SURFACE ( 'NONE', #14, 12.69999999999999900, 0.7853981633974482800 ) ;
#35 = ORIENTED_EDGE ( 'NONE', *, *, #37, .T. ) ;
#36 = EDGE_CURVE ( 'NONE', #294, #253, #62, .T. ) ;
#37 = EDGE_CURVE ( 'NONE', #253, #196, #301, .T. ) ;
#38 = DIRECTION ( 'NONE',  ( -0.7071067811865474600, 8.659560562354932900E-017, 0.7071067811865474600 ) ) ;
#39 = FACE_OUTER_BOUND ( 'NONE', #178, .T. ) ;
#40 = CIRCLE ( 'NONE', #75, 12.69999999999999900 ) ;
#41 = ORIENTED_EDGE ( 'NONE', *, *, #50, .T. ) ;
#42 = ORGANIZATION ( 'UNSPECIFIED', 'UNSPECIFIED', '' ) ;
#43 = DIRECTION ( 'NONE',  ( 1.000000000000000000, 0.0000000000000000000, 0.0000000000000000000 ) ) ;
#44 = EDGE_CURVE ( 'NONE', #201, #237, #152, .T. ) ;
#45 = SPHERICAL_SURFACE ( 'NONE', #115, 46.00000000000000000 ) ;
#46 = CARTESIAN_POINT ( 'NONE',  ( 0.0000000000000000000, 0.0000000000000000000, 2.609694815352776600 ) ) ;
#47 = ORIENTED_EDGE ( 'NONE', *, *, #166, .T. ) ;
#48 = ORIENTED_EDGE ( 'NONE', *, *, #52, .T. ) ;
#49 = DIRECTION ( 'NONE',  ( 1.000000000000000000, 0.0000000000000000000, 0.0000000000000000000 ) ) ;
#50 = EDGE_CURVE ( 'NONE', #260, #283, #96, .T. ) ;
#51 = FACE_OUTER_BOUND ( 'NONE', #274, .T. ) ;
#52 = EDGE_CURVE ( 'NONE', #237, #248, #266, .T. ) ;
#53 = LOCAL_TIME ( 16, 54, 31.00000000000000000, #175 ) ;
#54 = LINE ( 'NONE', #291, #4 ) ;
#55 = EDGE_CURVE ( 'NONE', #201, #105, #307, .T. ) ;
#56 = ORIENTED_EDGE ( 'NONE', *, *, #306, .T. ) ;
#57 = EDGE_CURVE ( 'NONE', #267, #260, #263, .T. ) ;
#58 = DIRECTION ( 'NONE',  ( 0.0000000000000000000, 1.000000000000000000, 0.0000000000000000000 ) ) ;
#59 = EDGE_LOOP ( 'NONE', ( #240, #143, #246, #1 ) ) ;
#60 = CARTESIAN_POINT ( 'NONE',  ( 0.0000000000000000000, 0.0000000000000000000, 46.89030518464721800 ) ) ;
#61 = EDGE_CURVE ( 'NONE', #105, #109, #135, .T. ) ;
#62 = CIRCLE ( 'NONE', #28, 46.00000000000000000 ) ;
#63 = DIRECTION ( 'NONE',  ( 0.0000000000000000000, 0.0000000000000000000, -1.000000000000000000 ) ) ;
#64 = ORIENTED_EDGE ( 'NONE', *, *, #57, .F. ) ;
#65 = ORIENTED_EDGE ( 'NONE', *, *, #70, .F. ) ;
#66 = CC_DESIGN_PERSON_AND_ORGANIZATION_ASSIGNMENT ( #113, #112, ( #192 ) ) ;
#67 = EDGE_CURVE ( 'NONE', #196, #109, #54, .T. ) ;
#68 = CONICAL_SURFACE ( 'NONE', #9, 12.45903468663333100, 0.9252583789295494300 ) ;
#69 = EDGE_LOOP ( 'NONE', ( #277, #56, #173, #204 ) ) ;
#70 = EDGE_CURVE ( 'NONE', #196, #267, #16, .T. ) ;
#71 = PERSON ( 'UNSPECIFIED', 'UNSPECIFIED', 'UNSPECIFIED', ('UNSPECIFIED'), ('UNSPECIFIED'), ('UNSPECIFIED') ) ;
#72 = PRODUCT_DEFINITION ( 'UNKNOWN', '', #192, #148 ) ;
#73 = CARTESIAN_POINT ( 'NONE',  ( 0.0000000000000000000, 0.0000000000000000000, -2.359694815352780100 ) ) ;
#74 = DIRECTION ( 'NONE',  ( 1.000000000000000000, 0.0000000000000000000, 0.0000000000000000000 ) ) ;
#75 = AXIS2_PLACEMENT_3D ( 'NONE', #225, #94, #100 ) ;
#76 = CARTESIAN_POINT ( 'NONE',  ( 0.0000000000000000000, 0.0000000000000000000, 46.89030518464721800 ) ) ;
#77 = AXIS2_PLACEMENT_3D ( 'NONE', #86, #289, #209 ) ;
#78 = ORIENTED_EDGE ( 'NONE', *, *, #207, .F. ) ;
#79 = CLOSED_SHELL ( 'NONE', ( #117, #90, #214, #317, #278, #300, #145, #234, #195 ) ) ;
#80 = COORDINATED_UNIVERSAL_TIME_OFFSET ( 5, 0, .BEHIND. ) ;
#81 = CC_DESIGN_PERSON_AND_ORGANIZATION_ASSIGNMENT ( #257, #139, ( #72 ) ) ;
#82 = DIRECTION ( 'NONE',  ( 0.7071067811865474600, 0.0000000000000000000, 0.7071067811865474600 ) ) ;
#83 = LOCAL_TIME ( 16, 54, 31.00000000000000000, #88 ) ;
#84 = CARTESIAN_POINT ( 'NONE',  ( -12.69999999999999900, 1.555301434917138400E-015, 2.428202769132084400 ) ) ;
#85 = CARTESIAN_POINT ( 'NONE',  ( 12.69999999999999900, 0.0000000000000000000, 0.8903051846472231900 ) ) ;
#86 = CARTESIAN_POINT ( 'NONE',  ( 0.0000000000000000000, 0.0000000000000000000, -2.359694815352780100 ) ) ;
#87 = AXIS2_PLACEMENT_3D ( 'NONE', #186, #63, #303 ) ;
#88 = COORDINATED_UNIVERSAL_TIME_OFFSET ( 5, 0, .BEHIND. ) ;
#89 =( GEOMETRIC_REPRESENTATION_CONTEXT ( 3 ) GLOBAL_UNCERTAINTY_ASSIGNED_CONTEXT ( ( #155 ) ) GLOBAL_UNIT_ASSIGNED_CONTEXT ( ( #235, #285, #121 ) ) REPRESENTATION_CONTEXT ( 'NONE', 'WORKASPACE' ) );
#90 = ADVANCED_FACE ( 'NONE', ( #51 ), #34, .T. ) ;
#91 = AXIS2_PLACEMENT_3D ( 'NONE', #7, #24, #49 ) ;
#92 = DATE_AND_TIME ( #163, #53 ) ;
#93 = ORIENTED_EDGE ( 'NONE', *, *, #194, .F. ) ;
#94 = DIRECTION ( 'NONE',  ( 0.0000000000000000000, 0.0000000000000000000, -1.000000000000000000 ) ) ;
#95 = AXIS2_PLACEMENT_3D ( 'NONE', #138, #127, #231 ) ;
#96 = LINE ( 'NONE', #114, #276 ) ;
#97 = FACE_OUTER_BOUND ( 'NONE', #293, .T. ) ;
#98 = AXIS2_PLACEMENT_3D ( 'NONE', #219, #130, #191 ) ;
#99 = DIRECTION ( 'NONE',  ( 1.000000000000000000, 0.0000000000000000000, 0.0000000000000000000 ) ) ;
#100 = DIRECTION ( 'NONE',  ( -1.000000000000000000, 0.0000000000000000000, 0.0000000000000000000 ) ) ;
#101 = DIRECTION ( 'NONE',  ( -0.0000000000000000000, -0.0000000000000000000, 1.000000000000000000 ) ) ;
#102 = ORIENTED_EDGE ( 'NONE', *, *, #52, .F. ) ;
#103 = AXIS2_PLACEMENT_3D ( 'NONE', #73, #159, #3 ) ;
#104 = DIRECTION ( 'NONE',  ( 0.0000000000000000000, 0.0000000000000000000, 1.000000000000000000 ) ) ;
#105 = VERTEX_POINT ( 'NONE', #27 ) ;
#106 = AXIS2_PLACEMENT_3D ( 'NONE', #174, #245, #118 ) ;
#107 = DIRECTION ( 'NONE',  ( 1.000000000000000000, -0.0000000000000000000, 0.0000000000000000000 ) ) ;
#108 = CONICAL_SURFACE ( 'NONE', #103, 12.69999999999999900, 0.7853981633974482800 ) ;
#109 = VERTEX_POINT ( 'NONE', #84 ) ;
#110 = MECHANICAL_CONTEXT ( 'NONE', #259, 'mechanical' ) ;
#111 = SECURITY_CLASSIFICATION ( '', '', #20 ) ;
#112 = PERSON_AND_ORGANIZATION_ROLE ( 'creator' ) ;
#113 = PERSON_AND_ORGANIZATION ( #71, #42 ) ;
#114 = CARTESIAN_POINT ( 'NONE',  ( 12.45903468663333100, 1.525791694945135500E-015, 2.609694815352776600 ) ) ;
#115 = AXIS2_PLACEMENT_3D ( 'NONE', #76, #224, #193 ) ;
#116 = AXIS2_PLACEMENT_3D ( 'NONE', #206, #12, #136 ) ;
#117 = ADVANCED_FACE ( 'NONE', ( #39 ), #68, .T. ) ;
#118 = DIRECTION ( 'NONE',  ( 1.000000000000000000, 0.0000000000000000000, 0.0000000000000000000 ) ) ;
#119 = VECTOR ( 'NONE', #38, 1000.000000000000100 ) ;
#120 = COORDINATED_UNIVERSAL_TIME_OFFSET ( 5, 0, .BEHIND. ) ;
#121 =( NAMED_UNIT ( * ) SI_UNIT ( $, .STERADIAN. ) SOLID_ANGLE_UNIT ( ) );
#122 = CC_DESIGN_DATE_AND_TIME_ASSIGNMENT ( #32, #203, ( #111 ) ) ;
#123 = AXIS2_PLACEMENT_3D ( 'NONE', #316, #297, #199 ) ;
#124 = PRODUCT_RELATED_PRODUCT_CATEGORY ( 'detail', '', ( #158 ) ) ;
#125 = PRODUCT_DEFINITION_SHAPE ( 'NONE', 'NONE',  #72 ) ;
#126 = AXIS2_PLACEMENT_3D ( 'NONE', #190, #228, #319 ) ;
#127 = DIRECTION ( 'NONE',  ( -1.000000000000000000, 1.224646799147353200E-016, 0.0000000000000000000 ) ) ;
#128 = APPROVAL_ROLE ( '' ) ;
#129 = ORIENTED_EDGE ( 'NONE', *, *, #44, .T. ) ;
#130 = DIRECTION ( 'NONE',  ( -0.0000000000000000000, -0.0000000000000000000, 1.000000000000000000 ) ) ;
#131 = AXIS2_PLACEMENT_3D ( 'NONE', #60, #262, #58 ) ;
#132 = CALENDAR_DATE ( 2015, 17, 6 ) ;
#133 = EDGE_CURVE ( 'NONE', #248, #283, #142, .T. ) ;
#134 = CARTESIAN_POINT ( 'NONE',  ( 0.0000000000000000000, 0.0000000000000000000, -2.609694815352776600 ) ) ;
#135 = LINE ( 'NONE', #200, #213 ) ;
#136 = DIRECTION ( 'NONE',  ( 1.000000000000000000, 0.0000000000000000000, 0.0000000000000000000 ) ) ;
#137 = CIRCLE ( 'NONE', #126, 12.69999999999999900 ) ;
#138 = CARTESIAN_POINT ( 'NONE',  ( 0.0000000000000000000, 0.0000000000000000000, 46.89030518464721800 ) ) ;
#139 = PERSON_AND_ORGANIZATION_ROLE ( 'creator' ) ;
#140 = APPROVAL_STATUS ( 'not_yet_approved' ) ;
#141 = APPROVAL_PERSON_ORGANIZATION ( #269, #23, #187 ) ;
#142 = LINE ( 'NONE', #85, #6 ) ;
#143 = ORIENTED_EDGE ( 'NONE', *, *, #310, .T. ) ;
#144 = APPROVAL_STATUS ( 'not_yet_approved' ) ;
#145 = ADVANCED_FACE ( 'NONE', ( #30 ), #179, .F. ) ;
#146 = ORIENTED_EDGE ( 'NONE', *, *, #33, .F. ) ;
#147 = APPROVAL ( #144, 'UNSPECIFIED' ) ;
#148 = DESIGN_CONTEXT ( 'detailed design', #177, 'design' ) ;
#149 = CC_DESIGN_DATE_AND_TIME_ASSIGNMENT ( #92, #161, ( #72 ) ) ;
#150 = SPHERICAL_SURFACE ( 'NONE', #131, 46.00000000000000000 ) ;
#151 = CC_DESIGN_APPROVAL ( #23, ( #111 ) ) ;
#152 = CIRCLE ( 'NONE', #22, 12.45000000000000300 ) ;
#153 = EDGE_CURVE ( 'NONE', #237, #201, #212, .T. ) ;
#154 = APPROVAL_DATE_TIME ( #238, #160 ) ;
#155 = UNCERTAINTY_MEASURE_WITH_UNIT (LENGTH_MEASURE( 1.000000000000000100E-005 ), #235, 'distance_accuracy_value', 'NONE');
#156 = DIRECTION ( 'NONE',  ( -1.000000000000000000, 0.0000000000000000000, 0.0000000000000000000 ) ) ;
#157 = CARTESIAN_POINT ( 'NONE',  ( -12.45000000000000300, 1.539993349927796700E-015, -2.609694815352776600 ) ) ;
#158 = PRODUCT ( '4353-E0W', '4353-E0W', '', ( #110 ) ) ;
#159 = DIRECTION ( 'NONE',  ( -0.0000000000000000000, -0.0000000000000000000, 1.000000000000000000 ) ) ;
#160 = APPROVAL ( #226, 'UNSPECIFIED' ) ;
#161 = DATE_TIME_ROLE ( 'creation_date' ) ;
#162 = ORIENTED_EDGE ( 'NONE', *, *, #70, .T. ) ;
#163 = CALENDAR_DATE ( 2015, 17, 6 ) ;
#164 = DIRECTION ( 'NONE',  ( -0.0000000000000000000, -0.0000000000000000000, 1.000000000000000000 ) ) ;
#165 = DATE_AND_TIME ( #251, #311 ) ;
#166 = EDGE_CURVE ( 'NONE', #109, #283, #40, .T. ) ;
#167 = CIRCLE ( 'NONE', #95, 46.00000000000000000 ) ;
#168 = CC_DESIGN_APPROVAL ( #147, ( #192 ) ) ;
#169 = APPROVAL_ROLE ( '' ) ;
#170 = AXIS2_PLACEMENT_3D ( 'NONE', #176, #104, #227 ) ;
#171 = DIRECTION ( 'NONE',  ( 0.7987762379169999200, 9.782187630000187400E-017, -0.6016282255173575100 ) ) ;
#172 = LOCAL_TIME ( 16, 54, 31.00000000000000000, #287 ) ;
#173 = ORIENTED_EDGE ( 'NONE', *, *, #57, .T. ) ;
#174 = CARTESIAN_POINT ( 'NONE',  ( 0.0000000000000000000, 0.0000000000000000000, 0.8903051846472231900 ) ) ;
#175 = COORDINATED_UNIVERSAL_TIME_OFFSET ( 5, 0, .BEHIND. ) ;
#176 = CARTESIAN_POINT ( 'NONE',  ( 0.0000000000000000000, 0.0000000000000000000, 0.0000000000000000000 ) ) ;
#177 = APPLICATION_CONTEXT ( 'configuration controlled 3d designs of mechanical parts and assemblies' ) ;
#178 = EDGE_LOOP ( 'NONE', ( #146, #41, #232, #290, #272 ) ) ;
#179 = PLANE ( 'NONE',  #123 ) ;
#180 = ORIENTED_EDGE ( 'NONE', *, *, #310, .F. ) ;
#181 = CC_DESIGN_PERSON_AND_ORGANIZATION_ASSIGNMENT ( #218, #215, ( #158 ) ) ;
#182 = CALENDAR_DATE ( 2015, 17, 6 ) ;
#183 = DIRECTION ( 'NONE',  ( -0.0000000000000000000, -0.0000000000000000000, 1.000000000000000000 ) ) ;
#184 = CIRCLE ( 'NONE', #98, 12.69999999999999900 ) ;
#185 = DIRECTION ( 'NONE',  ( -0.7987762379169999200, 0.0000000000000000000, -0.6016282255173575100 ) ) ;
#186 = CARTESIAN_POINT ( 'NONE',  ( 0.0000000000000000000, 0.0000000000000000000, 2.609694815352776600 ) ) ;
#187 = APPROVAL_ROLE ( '' ) ;
#188 = CIRCLE ( 'NONE', #31, 12.45903468663333400 ) ;
#189 = CALENDAR_DATE ( 2015, 17, 6 ) ;
#190 = CARTESIAN_POINT ( 'NONE',  ( 0.0000000000000000000, 0.0000000000000000000, 2.428202769132084400 ) ) ;
#191 = DIRECTION ( 'NONE',  ( 1.000000000000000000, 0.0000000000000000000, 0.0000000000000000000 ) ) ;
#192 = PRODUCT_DEFINITION_FORMATION_WITH_SPECIFIED_SOURCE ( 'ANY', '', #158, .NOT_KNOWN. ) ;
#193 = DIRECTION ( 'NONE',  ( 0.0000000000000000000, 1.000000000000000000, 0.0000000000000000000 ) ) ;
#194 = EDGE_CURVE ( 'NONE', #248, #105, #202, .T. ) ;
#195 = ADVANCED_FACE ( 'NONE', ( #97 ), #220, .T. ) ;
#196 = VERTEX_POINT ( 'NONE', #268 ) ;
#197 = DIRECTION ( 'NONE',  ( -0.0000000000000000000, -0.0000000000000000000, 1.000000000000000000 ) ) ;
#198 = ORIENTED_EDGE ( 'NONE', *, *, #55, .T. ) ;
#199 = DIRECTION ( 'NONE',  ( 1.000000000000000000, 0.0000000000000000000, 0.0000000000000000000 ) ) ;
#200 = CARTESIAN_POINT ( 'NONE',  ( -12.69999999999999900, 1.555301434917138400E-015, 0.8903051846472231900 ) ) ;
#201 = VERTEX_POINT ( 'NONE', #157 ) ;
#202 = CIRCLE ( 'NONE', #77, 12.69999999999999900 ) ;
#203 = DATE_TIME_ROLE ( 'classification_date' ) ;
#204 = ORIENTED_EDGE ( 'NONE', *, *, #33, .T. ) ;
#205 = FACE_OUTER_BOUND ( 'NONE', #18, .T. ) ;
#206 = CARTESIAN_POINT ( 'NONE',  ( 0.0000000000000000000, 0.0000000000000000000, -2.609694815352776600 ) ) ;
#207 = EDGE_CURVE ( 'NONE', #283, #109, #137, .T. ) ;
#208 = DIRECTION ( 'NONE',  ( -0.0000000000000000000, -0.0000000000000000000, 1.000000000000000000 ) ) ;
#209 = DIRECTION ( 'NONE',  ( 1.000000000000000000, 0.0000000000000000000, 0.0000000000000000000 ) ) ;
#210 = FACE_OUTER_BOUND ( 'NONE', #69, .T. ) ;
#211 = PERSON_AND_ORGANIZATION_ROLE ( 'classification_officer' ) ;
#212 = CIRCLE ( 'NONE', #116, 12.45000000000000300 ) ;
#213 = VECTOR ( 'NONE', #243, 1000.000000000000000 ) ;
#214 = ADVANCED_FACE ( 'NONE', ( #271 ), #282, .T. ) ;
#215 = PERSON_AND_ORGANIZATION_ROLE ( 'design_owner' ) ;
#216 = APPLICATION_PROTOCOL_DEFINITION ( 'international standard', 'config_control_design', 1994, #177 ) ;
#217 = ORIENTED_EDGE ( 'NONE', *, *, #67, .T. ) ;
#218 = PERSON_AND_ORGANIZATION ( #71, #42 ) ;
#219 = CARTESIAN_POINT ( 'NONE',  ( 0.0000000000000000000, 0.0000000000000000000, -2.359694815352780100 ) ) ;
#220 = CONICAL_SURFACE ( 'NONE', #87, 12.45903468663333100, 0.9252583789295494300 ) ;
#221 = CARTESIAN_POINT ( 'NONE',  ( 12.69999999999999900, 0.0000000000000000000, 2.428202769132084400 ) ) ;
#222 = CARTESIAN_POINT ( 'NONE',  ( -12.69999999999999900, 1.555301434917138400E-015, -2.359694815352780100 ) ) ;
#223 = APPROVAL_PERSON_ORGANIZATION ( #309, #160, #128 ) ;
#224 = DIRECTION ( 'NONE',  ( -1.000000000000000000, 0.0000000000000000000, 0.0000000000000000000 ) ) ;
#225 = CARTESIAN_POINT ( 'NONE',  ( 0.0000000000000000000, 0.0000000000000000000, 2.428202769132084400 ) ) ;
#226 = APPROVAL_STATUS ( 'not_yet_approved' ) ;
#227 = DIRECTION ( 'NONE',  ( 1.000000000000000000, 0.0000000000000000000, 0.0000000000000000000 ) ) ;
#228 = DIRECTION ( 'NONE',  ( 0.0000000000000000000, 0.0000000000000000000, -1.000000000000000000 ) ) ;
#229 = CARTESIAN_POINT ( 'NONE',  ( 0.0000000000000000000, 0.0000000000000000000, 2.609694815352776600 ) ) ;
#230 = CARTESIAN_POINT ( 'NONE',  ( 0.0000000000000000000, 2.816687638038912400E-015, 0.8903051846472220800 ) ) ;
#231 = DIRECTION ( 'NONE',  ( -1.224646799147353200E-016, -1.000000000000000000, 0.0000000000000000000 ) ) ;
#232 = ORIENTED_EDGE ( 'NONE', *, *, #166, .F. ) ;
#233 = ORIENTED_EDGE ( 'NONE', *, *, #153, .T. ) ;
#234 = ADVANCED_FACE ( 'NONE', ( #205 ), #108, .T. ) ;
#235 =( LENGTH_UNIT ( ) NAMED_UNIT ( * ) SI_UNIT ( .MILLI., .METRE. ) );
#236 = FACE_OUTER_BOUND ( 'NONE', #59, .T. ) ;
#237 = VERTEX_POINT ( 'NONE', #304 ) ;
#238 = DATE_AND_TIME ( #189, #275 ) ;
#239 = CYLINDRICAL_SURFACE ( 'NONE', #91, 12.69999999999999900 ) ;
#240 = ORIENTED_EDGE ( 'NONE', *, *, #61, .F. ) ;
#241 = DIRECTION ( 'NONE',  ( -0.0000000000000000000, -0.0000000000000000000, 1.000000000000000000 ) ) ;
#242 = CARTESIAN_POINT ( 'NONE',  ( 0.0000000000000000000, 0.0000000000000000000, 2.609694815352776600 ) ) ;
#243 = DIRECTION ( 'NONE',  ( -0.0000000000000000000, -0.0000000000000000000, 1.000000000000000000 ) ) ;
#244 = APPLICATION_PROTOCOL_DEFINITION ( 'international standard', 'config_control_design', 1994, #259 ) ;
#245 = DIRECTION ( 'NONE',  ( -0.0000000000000000000, -0.0000000000000000000, 1.000000000000000000 ) ) ;
#246 = ORIENTED_EDGE ( 'NONE', *, *, #133, .T. ) ;
#247 = ORIENTED_EDGE ( 'NONE', *, *, #153, .F. ) ;
#248 = VERTEX_POINT ( 'NONE', #270 ) ;
#249 = EDGE_LOOP ( 'NONE', ( #302, #295, #35, #162 ) ) ;
#250 = CARTESIAN_POINT ( 'NONE',  ( 12.45903468663333400, 1.540546564931137400E-015, 2.609694815352776600 ) ) ;
#251 = CALENDAR_DATE ( 2015, 17, 6 ) ;
#252 = CARTESIAN_POINT ( 'NONE',  ( -1.525791694945137300E-015, -12.45903468663334500, 2.609694815352775300 ) ) ;
#253 = VERTEX_POINT ( 'NONE', #8 ) ;
#254 = CARTESIAN_POINT ( 'NONE',  ( 0.0000000000000000000, 0.0000000000000000000, 46.89030518464721800 ) ) ;
#255 = CARTESIAN_POINT ( 'NONE',  ( 12.69999999999999900, 0.0000000000000000000, -2.359694815352780100 ) ) ;
#256 = ORIENTED_EDGE ( 'NONE', *, *, #194, .T. ) ;
#257 = PERSON_AND_ORGANIZATION ( #71, #42 ) ;
#258 = CARTESIAN_POINT ( 'NONE',  ( 0.0000000000000000000, 0.0000000000000000000, 2.609694815352776600 ) ) ;
#259 = APPLICATION_CONTEXT ( 'configuration controlled 3d designs of mechanical parts and assemblies' ) ;
#260 = VERTEX_POINT ( 'NONE', #250 ) ;
#261 = CC_DESIGN_APPROVAL ( #160, ( #72 ) ) ;
#262 = DIRECTION ( 'NONE',  ( -1.000000000000000000, 0.0000000000000000000, 0.0000000000000000000 ) ) ;
#263 = CIRCLE ( 'NONE', #21, 12.45903468663333400 ) ;
#264 = ORIENTED_EDGE ( 'NONE', *, *, #133, .F. ) ;
#265 = DIRECTION ( 'NONE',  ( 1.000000000000000000, 0.0000000000000000000, 0.0000000000000000000 ) ) ;
#266 = LINE ( 'NONE', #255, #29 ) ;
#267 = VERTEX_POINT ( 'NONE', #252 ) ;
#268 = CARTESIAN_POINT ( 'NONE',  ( -12.45903468663333400, 0.0000000000000000000, 2.609694815352776600 ) ) ;
#269 = PERSON_AND_ORGANIZATION ( #71, #42 ) ;
#270 = CARTESIAN_POINT ( 'NONE',  ( 12.69999999999999900, 0.0000000000000000000, -2.359694815352780100 ) ) ;
#271 = FACE_OUTER_BOUND ( 'NONE', #25, .T. ) ;
#272 = ORIENTED_EDGE ( 'NONE', *, *, #37, .F. ) ;
#273 = CARTESIAN_POINT ( 'NONE',  ( 0.0000000000000000000, 0.0000000000000000000, -2.359694815352780100 ) ) ;
#274 = EDGE_LOOP ( 'NONE', ( #292, #198, #93, #102 ) ) ;
#275 = LOCAL_TIME ( 16, 54, 31.00000000000000000, #80 ) ;
#276 = VECTOR ( 'NONE', #171, 1000.000000000000100 ) ;
#277 = ORIENTED_EDGE ( 'NONE', *, *, #36, .F. ) ;
#278 = ADVANCED_FACE ( 'NONE', ( #314 ), #150, .F. ) ;
#279 = CC_DESIGN_PERSON_AND_ORGANIZATION_ASSIGNMENT ( #288, #298, ( #192 ) ) ;
#280 = DIRECTION ( 'NONE',  ( 1.000000000000000000, 0.0000000000000000000, 0.0000000000000000000 ) ) ;
#281 = APPROVAL_PERSON_ORGANIZATION ( #11, #147, #169 ) ;
#282 = CYLINDRICAL_SURFACE ( 'NONE', #106, 12.69999999999999900 ) ;
#283 = VERTEX_POINT ( 'NONE', #221 ) ;
#284 = DIRECTION ( 'NONE',  ( 1.000000000000000000, 0.0000000000000000000, 0.0000000000000000000 ) ) ;
#285 =( NAMED_UNIT ( * ) PLANE_ANGLE_UNIT ( ) SI_UNIT ( $, .RADIAN. ) );
#286 = DIRECTION ( 'NONE',  ( 0.0000000000000000000, 0.0000000000000000000, -1.000000000000000000 ) ) ;
#287 = COORDINATED_UNIVERSAL_TIME_OFFSET ( 5, 0, .BEHIND. ) ;
#288 = PERSON_AND_ORGANIZATION ( #71, #42 ) ;
#289 = DIRECTION ( 'NONE',  ( -0.0000000000000000000, -0.0000000000000000000, 1.000000000000000000 ) ) ;
#290 = ORIENTED_EDGE ( 'NONE', *, *, #67, .F. ) ;
#291 = CARTESIAN_POINT ( 'NONE',  ( -12.45903468663333100, 0.0000000000000000000, 2.609694815352776600 ) ) ;
#292 = ORIENTED_EDGE ( 'NONE', *, *, #44, .F. ) ;
#293 = EDGE_LOOP ( 'NONE', ( #318, #64, #65, #217, #78 ) ) ;
#294 = VERTEX_POINT ( 'NONE', #230 ) ;
#295 = ORIENTED_EDGE ( 'NONE', *, *, #36, .T. ) ;
#296 = SHAPE_DEFINITION_REPRESENTATION ( #125, #313 ) ;
#297 = DIRECTION ( 'NONE',  ( 0.0000000000000000000, -0.0000000000000000000, 1.000000000000000000 ) ) ;
#298 = PERSON_AND_ORGANIZATION_ROLE ( 'design_supplier' ) ;
#299 = PERSON_AND_ORGANIZATION ( #71, #42 ) ;
#300 = ADVANCED_FACE ( 'NONE', ( #236 ), #239, .T. ) ;
#301 = CIRCLE ( 'NONE', #26, 12.45903468663333400 ) ;
#302 = ORIENTED_EDGE ( 'NONE', *, *, #306, .F. ) ;
#303 = DIRECTION ( 'NONE',  ( -1.000000000000000000, 0.0000000000000000000, 0.0000000000000000000 ) ) ;
#304 = CARTESIAN_POINT ( 'NONE',  ( 12.45000000000000300, 0.0000000000000000000, -2.609694815352776600 ) ) ;
#305 = ORIENTED_EDGE ( 'NONE', *, *, #61, .T. ) ;
#306 = EDGE_CURVE ( 'NONE', #294, #267, #167, .T. ) ;
#307 = LINE ( 'NONE', #222, #119 ) ;
#308 = ORIENTED_EDGE ( 'NONE', *, *, #55, .F. ) ;
#309 = PERSON_AND_ORGANIZATION ( #71, #42 ) ;
#310 = EDGE_CURVE ( 'NONE', #105, #248, #184, .T. ) ;
#311 = LOCAL_TIME ( 16, 54, 31.00000000000000000, #120 ) ;
#312 = EDGE_LOOP ( 'NONE', ( #233, #129 ) ) ;
#313 = ADVANCED_BREP_SHAPE_REPRESENTATION ( '4353-E0W', ( #315, #170 ), #89 ) ;
#314 = FACE_OUTER_BOUND ( 'NONE', #249, .T. ) ;
#315 = MANIFOLD_SOLID_BREP ( '4353-001-1-solid1', #79 ) ;
#316 = CARTESIAN_POINT ( 'NONE',  ( 0.0000000000000000000, 0.0000000000000000000, -2.609694815352776600 ) ) ;
#317 = ADVANCED_FACE ( 'NONE', ( #210 ), #45, .F. ) ;
#318 = ORIENTED_EDGE ( 'NONE', *, *, #50, .F. ) ;
#319 = DIRECTION ( 'NONE',  ( -1.000000000000000000, 0.0000000000000000000, 0.0000000000000000000 ) ) ;
#320 = APPROVAL_DATE_TIME ( #165, #23 ) ;
#321 = CARTESIAN_POINT ( 'NONE',  ( 0.0000000000000000000, 0.0000000000000000000, 2.609694815352776600 ) ) ;
ENDSEC;
END-ISO-10303-21;
