ISO-10303-21;
HEADER;
FILE_DESCRIPTION (( 'STEP AP203' ),
    '1' );
FILE_NAME ('Web Model 45567_20976.step',
    '2022-03-15T17:13:28',
    ( '' ),
    ( '' ),
    'SwSTEP 2.0',
    'SolidWorks 2021',
    '' );
FILE_SCHEMA (( 'CONFIG_CONTROL_DESIGN' ));
ENDSEC;

DATA;
#1 = LOCAL_TIME ( 13, 13, 28.00000000000000000, #110 ) ;
#2 = ORIENTED_EDGE ( 'NONE', *, *, #166, .T. ) ;
#3 = CLOSED_SHELL ( 'NONE', ( #42, #108, #74, #117 ) ) ;
#4 = CARTESIAN_POINT ( 'NONE',  ( -3.175000000000001155, 0.000000000000000000, 0.000000000000000000 ) ) ;
#5 = EDGE_CURVE ( 'NONE', #43, #104, #94, .T. ) ;
#6 = ORIENTED_EDGE ( 'NONE', *, *, #170, .F. ) ;
#7 = CARTESIAN_POINT ( 'NONE',  ( 0.000000000000000000, 0.000000000000000000, 1.000000000000000000 ) ) ;
#8 = CC_DESIGN_PERSON_AND_ORGANIZATION_ASSIGNMENT ( #122, #75, ( #114 ) ) ;
#9 = SECURITY_CLASSIFICATION ( '', '', #56 ) ;
#10 = DIRECTION ( 'NONE',  ( 1.000000000000000000, 0.000000000000000000, -0.000000000000000000 ) ) ;
#11 = CC_DESIGN_DATE_AND_TIME_ASSIGNMENT ( #19, #99, ( #9 ) ) ;
#12 = FACE_OUTER_BOUND ( 'NONE', #31, .T. ) ;
#13 = LINE ( 'NONE', #38, #44 ) ;
#14 = DIRECTION ( 'NONE',  ( 0.000000000000000000, 0.000000000000000000, 1.000000000000000000 ) ) ;
#15 = APPROVAL_ROLE ( '' ) ;
#16 = CC_DESIGN_DATE_AND_TIME_ASSIGNMENT ( #28, #132, ( #114 ) ) ;
#17 = APPROVAL_DATE_TIME ( #130, #105 ) ;
#18 = COORDINATED_UNIVERSAL_TIME_OFFSET ( 5, 0, .BEHIND. ) ;
#19 = DATE_AND_TIME ( #65, #86 ) ;
#20 = APPLICATION_CONTEXT ( 'configuration controlled 3d designs of mechanical parts and assemblies' ) ;
#21 = DIRECTION ( 'NONE',  ( 1.000000000000000000, 0.000000000000000000, 0.000000000000000000 ) ) ;
#22 = ORIENTED_EDGE ( 'NONE', *, *, #166, .F. ) ;
#23 = CARTESIAN_POINT ( 'NONE',  ( -3.175000000000001155, 0.000000000000000000, 1.000000000000000000 ) ) ;
#24 = DIRECTION ( 'NONE',  ( -1.000000000000000000, 0.000000000000000000, 0.000000000000000000 ) ) ;
#25 = CARTESIAN_POINT ( 'NONE',  ( 0.000000000000000000, 0.000000000000000000, 0.000000000000000000 ) ) ;
#26 = PERSON_AND_ORGANIZATION ( #30, #69 ) ;
#27 = LOCAL_TIME ( 13, 13, 28.00000000000000000, #133 ) ;
#28 = DATE_AND_TIME ( #161, #92 ) ;
#29 = PRODUCT_DEFINITION_FORMATION_WITH_SPECIFIED_SOURCE ( 'ANY', '', #124, .NOT_KNOWN. ) ;
#30 = PERSON ( 'UNSPECIFIED', 'UNSPECIFIED', 'UNSPECIFIED', ('UNSPECIFIED'), ('UNSPECIFIED'), ('UNSPECIFIED') ) ;
#31 = EDGE_LOOP ( 'NONE', ( #6, #101, #102, #164 ) ) ;
#32 = CC_DESIGN_PERSON_AND_ORGANIZATION_ASSIGNMENT ( #40, #55, ( #9 ) ) ;
#33 = FACE_OUTER_BOUND ( 'NONE', #79, .T. ) ;
#34 = DIRECTION ( 'NONE',  ( 1.000000000000000000, 0.000000000000000000, 0.000000000000000000 ) ) ;
#35 = PERSON_AND_ORGANIZATION_ROLE ( 'design_owner' ) ;
#36 =( NAMED_UNIT ( * ) PLANE_ANGLE_UNIT ( ) SI_UNIT ( $, .RADIAN. ) );
#37 = CC_DESIGN_PERSON_AND_ORGANIZATION_ASSIGNMENT ( #39, #54, ( #29 ) ) ;
#38 = CARTESIAN_POINT ( 'NONE',  ( 3.175000000000001155, 3.888253587292847561E-16, 1.000000000000000000 ) ) ;
#39 = PERSON_AND_ORGANIZATION ( #30, #69 ) ;
#40 = PERSON_AND_ORGANIZATION ( #30, #69 ) ;
#41 = APPLICATION_CONTEXT ( 'configuration controlled 3d designs of mechanical parts and assemblies' ) ;
#42 = ADVANCED_FACE ( 'NONE', ( #33 ), #118, .T. ) ;
#43 = VERTEX_POINT ( 'NONE', #4 ) ;
#44 = VECTOR ( 'NONE', #156, 1000.000000000000000 ) ;
#45 = DIRECTION ( 'NONE',  ( 0.000000000000000000, 0.000000000000000000, 1.000000000000000000 ) ) ;
#46 = ORIENTED_EDGE ( 'NONE', *, *, #5, .F. ) ;
#47 = CIRCLE ( 'NONE', #154, 3.175000000000001155 ) ;
#48 = DIRECTION ( 'NONE',  ( 1.000000000000000000, 0.000000000000000000, 0.000000000000000000 ) ) ;
#49 = DIRECTION ( 'NONE',  ( -0.000000000000000000, -0.000000000000000000, -1.000000000000000000 ) ) ;
#50 = APPROVAL_ROLE ( '' ) ;
#51 = AXIS2_PLACEMENT_3D ( 'NONE', #173, #49, #24 ) ;
#52 = PRODUCT_DEFINITION_SHAPE ( 'NONE', 'NONE',  #114 ) ;
#53 = UNCERTAINTY_MEASURE_WITH_UNIT (LENGTH_MEASURE( 1.000000000000000082E-05 ), #127, 'distance_accuracy_value', 'NONE');
#54 = PERSON_AND_ORGANIZATION_ROLE ( 'design_supplier' ) ;
#55 = PERSON_AND_ORGANIZATION_ROLE ( 'classification_officer' ) ;
#56 = SECURITY_CLASSIFICATION_LEVEL ( 'unclassified' ) ;
#57 = ORIENTED_EDGE ( 'NONE', *, *, #172, .T. ) ;
#58 = VERTEX_POINT ( 'NONE', #23 ) ;
#59 = APPROVAL_PERSON_ORGANIZATION ( #174, #135, #15 ) ;
#60 = EDGE_LOOP ( 'NONE', ( #167, #57 ) ) ;
#61 = EDGE_LOOP ( 'NONE', ( #46, #22 ) ) ;
#62 = PLANE ( 'NONE',  #103 ) ;
#63 = FACE_OUTER_BOUND ( 'NONE', #61, .T. ) ;
#64 = PERSON_AND_ORGANIZATION ( #30, #69 ) ;
#65 = CALENDAR_DATE ( 2022, 15, 3 ) ;
#66 = CC_DESIGN_APPROVAL ( #67, ( #114 ) ) ;
#67 = APPROVAL ( #158, 'UNSPECIFIED' ) ;
#68 = CIRCLE ( 'NONE', #134, 3.175000000000001155 ) ;
#69 = ORGANIZATION ( 'UNSPECIFIED', 'UNSPECIFIED', '' ) ;
#70 = DIRECTION ( 'NONE',  ( 0.000000000000000000, 0.000000000000000000, 1.000000000000000000 ) ) ;
#71 = APPLICATION_PROTOCOL_DEFINITION ( 'international standard', 'config_control_design', 1994, #41 ) ;
#72 = DIRECTION ( 'NONE',  ( 1.000000000000000000, 0.000000000000000000, 0.000000000000000000 ) ) ;
#73 = CARTESIAN_POINT ( 'NONE',  ( 0.000000000000000000, 0.000000000000000000, 0.000000000000000000 ) ) ;
#74 = ADVANCED_FACE ( 'NONE', ( #90 ), #80, .T. ) ;
#75 = PERSON_AND_ORGANIZATION_ROLE ( 'creator' ) ;
#76 = PERSON_AND_ORGANIZATION ( #30, #69 ) ;
#77 = APPROVAL_STATUS ( 'not_yet_approved' ) ;
#78 = APPROVAL_PERSON_ORGANIZATION ( #76, #105, #88 ) ;
#79 = EDGE_LOOP ( 'NONE', ( #91, #151, #2, #165 ) ) ;
#80 = PLANE ( 'NONE',  #115 ) ;
#81 = ADVANCED_BREP_SHAPE_REPRESENTATION ( 'Web Model 45567_20976', ( #163, #148 ), #131 ) ;
#82 = CARTESIAN_POINT ( 'NONE',  ( 0.000000000000000000, 0.000000000000000000, 1.000000000000000000 ) ) ;
#83 = MECHANICAL_CONTEXT ( 'NONE', #41, 'mechanical' ) ;
#84 = EDGE_CURVE ( 'NONE', #58, #152, #68, .T. ) ;
#85 = CALENDAR_DATE ( 2022, 15, 3 ) ;
#86 = LOCAL_TIME ( 13, 13, 28.00000000000000000, #18 ) ;
#87 = PRODUCT_RELATED_PRODUCT_CATEGORY ( 'detail', '', ( #124 ) ) ;
#88 = APPROVAL_ROLE ( '' ) ;
#89 = PERSON_AND_ORGANIZATION_ROLE ( 'creator' ) ;
#90 = FACE_OUTER_BOUND ( 'NONE', #60, .T. ) ;
#91 = ORIENTED_EDGE ( 'NONE', *, *, #172, .F. ) ;
#92 = LOCAL_TIME ( 13, 13, 28.00000000000000000, #129 ) ;
#93 =( NAMED_UNIT ( * ) SI_UNIT ( $, .STERADIAN. ) SOLID_ANGLE_UNIT ( ) );
#94 = CIRCLE ( 'NONE', #113, 3.175000000000001155 ) ;
#95 = DIRECTION ( 'NONE',  ( 1.000000000000000000, 0.000000000000000000, -0.000000000000000000 ) ) ;
#96 = LINE ( 'NONE', #157, #162 ) ;
#97 = CARTESIAN_POINT ( 'NONE',  ( 3.175000000000001155, 3.888253587292847561E-16, 1.000000000000000000 ) ) ;
#98 = APPROVAL_STATUS ( 'not_yet_approved' ) ;
#99 = DATE_TIME_ROLE ( 'classification_date' ) ;
#100 = CC_DESIGN_SECURITY_CLASSIFICATION ( #9, ( #29 ) ) ;
#101 = ORIENTED_EDGE ( 'NONE', *, *, #84, .F. ) ;
#102 = ORIENTED_EDGE ( 'NONE', *, *, #145, .T. ) ;
#103 = AXIS2_PLACEMENT_3D ( 'NONE', #123, #106, #95 ) ;
#104 = VERTEX_POINT ( 'NONE', #138 ) ;
#105 = APPROVAL ( #77, 'UNSPECIFIED' ) ;
#106 = DIRECTION ( 'NONE',  ( 0.000000000000000000, 0.000000000000000000, 1.000000000000000000 ) ) ;
#107 = CARTESIAN_POINT ( 'NONE',  ( 0.000000000000000000, 0.000000000000000000, 1.000000000000000000 ) ) ;
#108 = ADVANCED_FACE ( 'NONE', ( #12 ), #120, .T. ) ;
#109 = CIRCLE ( 'NONE', #121, 3.175000000000001155 ) ;
#110 = COORDINATED_UNIVERSAL_TIME_OFFSET ( 5, 0, .BEHIND. ) ;
#111 = APPLICATION_PROTOCOL_DEFINITION ( 'international standard', 'config_control_design', 1994, #20 ) ;
#112 = CALENDAR_DATE ( 2022, 15, 3 ) ;
#113 = AXIS2_PLACEMENT_3D ( 'NONE', #136, #45, #21 ) ;
#114 = PRODUCT_DEFINITION ( 'UNKNOWN', '', #29, #128 ) ;
#115 = AXIS2_PLACEMENT_3D ( 'NONE', #150, #70, #10 ) ;
#116 = DIRECTION ( 'NONE',  ( -1.000000000000000000, 0.000000000000000000, 0.000000000000000000 ) ) ;
#117 = ADVANCED_FACE ( 'NONE', ( #63 ), #62, .F. ) ;
#118 = CYLINDRICAL_SURFACE ( 'NONE', #126, 3.175000000000001155 ) ;
#119 = CC_DESIGN_APPROVAL ( #105, ( #9 ) ) ;
#120 = CYLINDRICAL_SURFACE ( 'NONE', #51, 3.175000000000001155 ) ;
#121 = AXIS2_PLACEMENT_3D ( 'NONE', #107, #14, #48 ) ;
#122 = PERSON_AND_ORGANIZATION ( #30, #69 ) ;
#123 = CARTESIAN_POINT ( 'NONE',  ( 0.000000000000000000, 0.000000000000000000, 0.000000000000000000 ) ) ;
#124 = PRODUCT ( 'Web Model 45567_20976', 'Web Model 45567_20976', '', ( #83 ) ) ;
#125 = DIRECTION ( 'NONE',  ( 0.000000000000000000, 0.000000000000000000, 1.000000000000000000 ) ) ;
#126 = AXIS2_PLACEMENT_3D ( 'NONE', #82, #137, #116 ) ;
#127 =( LENGTH_UNIT ( ) NAMED_UNIT ( * ) SI_UNIT ( .MILLI., .METRE. ) );
#128 = DESIGN_CONTEXT ( 'detailed design', #20, 'design' ) ;
#129 = COORDINATED_UNIVERSAL_TIME_OFFSET ( 5, 0, .BEHIND. ) ;
#130 = DATE_AND_TIME ( #147, #168 ) ;
#131 =( GEOMETRIC_REPRESENTATION_CONTEXT ( 3 ) GLOBAL_UNCERTAINTY_ASSIGNED_CONTEXT ( ( #53 ) ) GLOBAL_UNIT_ASSIGNED_CONTEXT ( ( #127, #36, #93 ) ) REPRESENTATION_CONTEXT ( 'NONE', 'WORKASPACE' ) );
#132 = DATE_TIME_ROLE ( 'creation_date' ) ;
#133 = COORDINATED_UNIVERSAL_TIME_OFFSET ( 5, 0, .BEHIND. ) ;
#134 = AXIS2_PLACEMENT_3D ( 'NONE', #7, #171, #155 ) ;
#135 = APPROVAL ( #98, 'UNSPECIFIED' ) ;
#136 = CARTESIAN_POINT ( 'NONE',  ( 0.000000000000000000, 0.000000000000000000, 0.000000000000000000 ) ) ;
#137 = DIRECTION ( 'NONE',  ( -0.000000000000000000, -0.000000000000000000, -1.000000000000000000 ) ) ;
#138 = CARTESIAN_POINT ( 'NONE',  ( 3.175000000000001155, 3.888253587292847561E-16, 0.000000000000000000 ) ) ;
#139 = DIRECTION ( 'NONE',  ( 0.000000000000000000, 0.000000000000000000, 1.000000000000000000 ) ) ;
#140 = APPROVAL_PERSON_ORGANIZATION ( #26, #67, #50 ) ;
#141 = DATE_AND_TIME ( #85, #1 ) ;
#142 = CC_DESIGN_PERSON_AND_ORGANIZATION_ASSIGNMENT ( #175, #89, ( #29 ) ) ;
#143 = APPROVAL_DATE_TIME ( #141, #67 ) ;
#144 = CC_DESIGN_APPROVAL ( #135, ( #29 ) ) ;
#145 = EDGE_CURVE ( 'NONE', #58, #43, #96, .T. ) ;
#146 = COORDINATED_UNIVERSAL_TIME_OFFSET ( 5, 0, .BEHIND. ) ;
#147 = CALENDAR_DATE ( 2022, 15, 3 ) ;
#148 = AXIS2_PLACEMENT_3D ( 'NONE', #25, #125, #72 ) ;
#149 = DATE_AND_TIME ( #112, #27 ) ;
#150 = CARTESIAN_POINT ( 'NONE',  ( 0.000000000000000000, 0.000000000000000000, 1.000000000000000000 ) ) ;
#151 = ORIENTED_EDGE ( 'NONE', *, *, #170, .T. ) ;
#152 = VERTEX_POINT ( 'NONE', #97 ) ;
#153 = CC_DESIGN_PERSON_AND_ORGANIZATION_ASSIGNMENT ( #64, #35, ( #124 ) ) ;
#154 = AXIS2_PLACEMENT_3D ( 'NONE', #73, #139, #34 ) ;
#155 = DIRECTION ( 'NONE',  ( 1.000000000000000000, 0.000000000000000000, 0.000000000000000000 ) ) ;
#156 = DIRECTION ( 'NONE',  ( -0.000000000000000000, -0.000000000000000000, -1.000000000000000000 ) ) ;
#157 = CARTESIAN_POINT ( 'NONE',  ( -3.175000000000001155, 0.000000000000000000, 1.000000000000000000 ) ) ;
#158 = APPROVAL_STATUS ( 'not_yet_approved' ) ;
#159 = SHAPE_DEFINITION_REPRESENTATION ( #52, #81 ) ;
#160 = APPROVAL_DATE_TIME ( #149, #135 ) ;
#161 = CALENDAR_DATE ( 2022, 15, 3 ) ;
#162 = VECTOR ( 'NONE', #169, 1000.000000000000000 ) ;
#163 = MANIFOLD_SOLID_BREP ( 'Boss-Extrude1', #3 ) ;
#164 = ORIENTED_EDGE ( 'NONE', *, *, #5, .T. ) ;
#165 = ORIENTED_EDGE ( 'NONE', *, *, #145, .F. ) ;
#166 = EDGE_CURVE ( 'NONE', #104, #43, #47, .T. ) ;
#167 = ORIENTED_EDGE ( 'NONE', *, *, #84, .T. ) ;
#168 = LOCAL_TIME ( 13, 13, 28.00000000000000000, #146 ) ;
#169 = DIRECTION ( 'NONE',  ( -0.000000000000000000, -0.000000000000000000, -1.000000000000000000 ) ) ;
#170 = EDGE_CURVE ( 'NONE', #152, #104, #13, .T. ) ;
#171 = DIRECTION ( 'NONE',  ( 0.000000000000000000, 0.000000000000000000, 1.000000000000000000 ) ) ;
#172 = EDGE_CURVE ( 'NONE', #152, #58, #109, .T. ) ;
#173 = CARTESIAN_POINT ( 'NONE',  ( 0.000000000000000000, 0.000000000000000000, 1.000000000000000000 ) ) ;
#174 = PERSON_AND_ORGANIZATION ( #30, #69 ) ;
#175 = PERSON_AND_ORGANIZATION ( #30, #69 ) ;
ENDSEC;
END-ISO-10303-21;
