ISO-10303-21;
HEADER;
FILE_DESCRIPTION (( 'STEP AP203' ),
    '1' );
FILE_NAME ('Web Model 11878_11887.step',
    '2019-01-02T18:30:57',
    ( '' ),
    ( '' ),
    'SwSTEP 2.0',
    'SolidWorks 2016',
    '' );
FILE_SCHEMA (( 'CONFIG_CONTROL_DESIGN' ));
ENDSEC;

DATA;
#1 = ORIENTED_EDGE ( 'NONE', *, *, #243, .T. ) ;
#2 = PERSON_AND_ORGANIZATION ( #78, #65 ) ;
#3 = PLANE ( 'NONE',  #211 ) ;
#4 = PERSON_AND_ORGANIZATION ( #78, #65 ) ;
#5 = DIRECTION ( 'NONE',  ( -0.7071067811865597900, 0.0000000000000000000, 0.7071067811865352500 ) ) ;
#6 = DIRECTION ( 'NONE',  ( -1.000000000000000000, -0.0000000000000000000, -0.0000000000000000000 ) ) ;
#7 = APPROVAL_DATE_TIME ( #222, #182 ) ;
#8 = CIRCLE ( 'NONE', #154, 12.50000000000000000 ) ;
#9 = MECHANICAL_CONTEXT ( 'NONE', #225, 'mechanical' ) ;
#10 = DIRECTION ( 'NONE',  ( 1.000000000000000000, -0.0000000000000000000, -0.0000000000000000000 ) ) ;
#11 = SECURITY_CLASSIFICATION_LEVEL ( 'unclassified' ) ;
#12 = AXIS2_PLACEMENT_3D ( 'NONE', #25, #157, #178 ) ;
#13 = APPROVAL_STATUS ( 'not_yet_approved' ) ;
#14 = DATE_AND_TIME ( #201, #134 ) ;
#15 = ORIENTED_EDGE ( 'NONE', *, *, #205, .T. ) ;
#16 = CC_DESIGN_APPROVAL ( #182, ( #137 ) ) ;
#17 = EDGE_LOOP ( 'NONE', ( #111, #251, #133, #81 ) ) ;
#18 = MANIFOLD_SOLID_BREP ( 'Chamfer1', #233 ) ;
#19 = VERTEX_POINT ( 'NONE', #174 ) ;
#20 = VECTOR ( 'NONE', #185, 1000.000000000000000 ) ;
#21 = DIRECTION ( 'NONE',  ( 0.0000000000000000000, 0.0000000000000000000, -1.000000000000000000 ) ) ;
#22 = DIRECTION ( 'NONE',  ( -1.000000000000000000, -0.0000000000000000000, -0.0000000000000000000 ) ) ;
#23 = CARTESIAN_POINT ( 'NONE',  ( 2.500000000000000000, 0.0000000000000000000, 0.0000000000000000000 ) ) ;
#24 = VECTOR ( 'NONE', #226, 1000.000000000000000 ) ;
#25 = CARTESIAN_POINT ( 'NONE',  ( -2.450000000000000200, 0.0000000000000000000, 0.0000000000000000000 ) ) ;
#26 = AXIS2_PLACEMENT_3D ( 'NONE', #217, #62, #84 ) ;
#27 = CARTESIAN_POINT ( 'NONE',  ( 2.450000000000003700, 0.0000000000000000000, 0.0000000000000000000 ) ) ;
#28 = ORIENTED_EDGE ( 'NONE', *, *, #162, .F. ) ;
#29 = DIRECTION ( 'NONE',  ( 0.0000000000000000000, 0.0000000000000000000, -1.000000000000000000 ) ) ;
#30 = LINE ( 'NONE', #265, #135 ) ;
#31 = DIRECTION ( 'NONE',  ( 0.0000000000000000000, 0.0000000000000000000, -1.000000000000000000 ) ) ;
#32 = CARTESIAN_POINT ( 'NONE',  ( 2.500000000000000000, 1.530808498934191500E-015, -12.50000000000000000 ) ) ;
#33 = FACE_OUTER_BOUND ( 'NONE', #187, .T. ) ;
#34 = APPROVAL_ROLE ( '' ) ;
#35 = PERSON_AND_ORGANIZATION_ROLE ( 'design_supplier' ) ;
#36 = APPLICATION_PROTOCOL_DEFINITION ( 'international standard', 'config_control_design', 1994, #161 ) ;
#37 = APPROVAL ( #13, 'UNSPECIFIED' ) ;
#38 = LINE ( 'NONE', #87, #208 ) ;
#39 = AXIS2_PLACEMENT_3D ( 'NONE', #266, #131, #249 ) ;
#40 = AXIS2_PLACEMENT_3D ( 'NONE', #156, #88, #29 ) ;
#41 = LINE ( 'NONE', #102, #71 ) ;
#42 = LINE ( 'NONE', #247, #20 ) ;
#43 = DIRECTION ( 'NONE',  ( -1.000000000000000000, 0.0000000000000000000, 0.0000000000000000000 ) ) ;
#44 = PERSON_AND_ORGANIZATION ( #78, #65 ) ;
#45 = EDGE_CURVE ( 'NONE', #97, #198, #38, .T. ) ;
#46 = CIRCLE ( 'NONE', #144, 12.50000000000000000 ) ;
#47 = DIRECTION ( 'NONE',  ( 0.0000000000000000000, 0.0000000000000000000, 1.000000000000000000 ) ) ;
#48 = ADVANCED_FACE ( 'NONE', ( #96 ), #164, .T. ) ;
#49 = CARTESIAN_POINT ( 'NONE',  ( -2.500000000000000000, 0.0000000000000000000, 0.0000000000000000000 ) ) ;
#50 = ORIENTED_EDGE ( 'NONE', *, *, #140, .T. ) ;
#51 = ORIENTED_EDGE ( 'NONE', *, *, #162, .T. ) ;
#52 =( LENGTH_UNIT ( ) NAMED_UNIT ( * ) SI_UNIT ( .MILLI., .METRE. ) );
#53 = CC_DESIGN_PERSON_AND_ORGANIZATION_ASSIGNMENT ( #253, #54, ( #172 ) ) ;
#54 = PERSON_AND_ORGANIZATION_ROLE ( 'creator' ) ;
#55 = DATE_TIME_ROLE ( 'classification_date' ) ;
#56 = EDGE_LOOP ( 'NONE', ( #261, #122, #262, #224 ) ) ;
#57 = CC_DESIGN_APPROVAL ( #258, ( #238 ) ) ;
#58 = APPROVAL_PERSON_ORGANIZATION ( #44, #182, #34 ) ;
#59 = PERSON_AND_ORGANIZATION ( #78, #65 ) ;
#60 = DIRECTION ( 'NONE',  ( 0.0000000000000000000, 0.0000000000000000000, -1.000000000000000000 ) ) ;
#61 = CARTESIAN_POINT ( 'NONE',  ( -2.450000000000000200, 0.0000000000000000000, 0.0000000000000000000 ) ) ;
#62 = DIRECTION ( 'NONE',  ( -1.000000000000000000, 0.0000000000000000000, 0.0000000000000000000 ) ) ;
#63 = DATE_AND_TIME ( #212, #128 ) ;
#64 = ORIENTED_EDGE ( 'NONE', *, *, #114, .F. ) ;
#65 = ORGANIZATION ( 'UNSPECIFIED', 'UNSPECIFIED', '' ) ;
#66 = DIRECTION ( 'NONE',  ( 0.0000000000000000000, 0.0000000000000000000, -1.000000000000000000 ) ) ;
#67 = EDGE_CURVE ( 'NONE', #223, #141, #41, .T. ) ;
#68 = CC_DESIGN_PERSON_AND_ORGANIZATION_ASSIGNMENT ( #254, #186, ( #238 ) ) ;
#69 = DIRECTION ( 'NONE',  ( 0.0000000000000000000, 0.0000000000000000000, -1.000000000000000000 ) ) ;
#70 = ADVANCED_FACE ( 'NONE', ( #33 ), #123, .T. ) ;
#71 = VECTOR ( 'NONE', #5, 1000.000000000000000 ) ;
#72 = APPROVAL_DATE_TIME ( #216, #258 ) ;
#73 =( NAMED_UNIT ( * ) PLANE_ANGLE_UNIT ( ) SI_UNIT ( $, .RADIAN. ) );
#74 = EDGE_LOOP ( 'NONE', ( #152, #51 ) ) ;
#75 = FACE_OUTER_BOUND ( 'NONE', #246, .T. ) ;
#76 = PRODUCT_DEFINITION_SHAPE ( 'NONE', 'NONE',  #238 ) ;
#77 = CC_DESIGN_APPROVAL ( #37, ( #172 ) ) ;
#78 = PERSON ( 'UNSPECIFIED', 'UNSPECIFIED', 'UNSPECIFIED', ('UNSPECIFIED'), ('UNSPECIFIED'), ('UNSPECIFIED') ) ;
#79 = LOCAL_TIME ( 13, 30, 57.00000000000000000, #168 ) ;
#80 = CC_DESIGN_SECURITY_CLASSIFICATION ( #137, ( #172 ) ) ;
#81 = ORIENTED_EDGE ( 'NONE', *, *, #101, .F. ) ;
#82 = DIRECTION ( 'NONE',  ( -1.000000000000000000, 0.0000000000000000000, 0.0000000000000000000 ) ) ;
#83 = DIRECTION ( 'NONE',  ( 0.0000000000000000000, 0.0000000000000000000, -1.000000000000000000 ) ) ;
#84 = DIRECTION ( 'NONE',  ( 0.0000000000000000000, 0.0000000000000000000, 1.000000000000000000 ) ) ;
#85 = ORIENTED_EDGE ( 'NONE', *, *, #45, .T. ) ;
#86 = CIRCLE ( 'NONE', #148, 12.50000000000000000 ) ;
#87 = CARTESIAN_POINT ( 'NONE',  ( 2.500000000000000000, 1.524685264938455400E-015, -12.45000000000000600 ) ) ;
#88 = DIRECTION ( 'NONE',  ( 1.000000000000000000, 0.0000000000000000000, 0.0000000000000000000 ) ) ;
#89 = APPLICATION_PROTOCOL_DEFINITION ( 'international standard', 'config_control_design', 1994, #225 ) ;
#90 = CARTESIAN_POINT ( 'NONE',  ( 2.500000000000000000, 0.0000000000000000000, 12.45000000000000600 ) ) ;
#91 = ADVANCED_FACE ( 'NONE', ( #116 ), #218, .T. ) ;
#92 = CC_DESIGN_PERSON_AND_ORGANIZATION_ASSIGNMENT ( #59, #273, ( #239 ) ) ;
#93 = CARTESIAN_POINT ( 'NONE',  ( 0.0000000000000000000, 0.0000000000000000000, 0.0000000000000000000 ) ) ;
#94 = ORIENTED_EDGE ( 'NONE', *, *, #117, .T. ) ;
#95 = CIRCLE ( 'NONE', #12, 12.50000000000000000 ) ;
#96 = FACE_OUTER_BOUND ( 'NONE', #56, .T. ) ;
#97 = VERTEX_POINT ( 'NONE', #264 ) ;
#98 = ORIENTED_EDGE ( 'NONE', *, *, #140, .F. ) ;
#99 = ORIENTED_EDGE ( 'NONE', *, *, #194, .T. ) ;
#100 = CALENDAR_DATE ( 2019, 2, 1 ) ;
#101 = EDGE_CURVE ( 'NONE', #143, #215, #86, .T. ) ;
#102 = CARTESIAN_POINT ( 'NONE',  ( 2.500000000000000000, 0.0000000000000000000, 12.45000000000000600 ) ) ;
#103 = ADVANCED_FACE ( 'NONE', ( #180 ), #263, .T. ) ;
#104 = FACE_OUTER_BOUND ( 'NONE', #74, .T. ) ;
#105 = COORDINATED_UNIVERSAL_TIME_OFFSET ( 5, 0, .BEHIND. ) ;
#106 = CARTESIAN_POINT ( 'NONE',  ( 2.450000000000003700, 0.0000000000000000000, 12.50000000000000000 ) ) ;
#107 = CC_DESIGN_PERSON_AND_ORGANIZATION_ASSIGNMENT ( #2, #35, ( #172 ) ) ;
#108 = CARTESIAN_POINT ( 'NONE',  ( -2.450000000000000200, 0.0000000000000000000, 12.50000000000000000 ) ) ;
#109 = DIRECTION ( 'NONE',  ( 0.0000000000000000000, 0.0000000000000000000, -1.000000000000000000 ) ) ;
#110 = CARTESIAN_POINT ( 'NONE',  ( 2.500000000000000000, 0.0000000000000000000, 0.0000000000000000000 ) ) ;
#111 = ORIENTED_EDGE ( 'NONE', *, *, #194, .F. ) ;
#112 = ORIENTED_EDGE ( 'NONE', *, *, #175, .F. ) ;
#113 = DIRECTION ( 'NONE',  ( 0.0000000000000000000, 0.0000000000000000000, 1.000000000000000000 ) ) ;
#114 = EDGE_CURVE ( 'NONE', #19, #215, #167, .T. ) ;
#115 = COORDINATED_UNIVERSAL_TIME_OFFSET ( 5, 0, .BEHIND. ) ;
#116 = FACE_OUTER_BOUND ( 'NONE', #17, .T. ) ;
#117 = EDGE_CURVE ( 'NONE', #141, #198, #46, .T. ) ;
#118 = LINE ( 'NONE', #32, #24 ) ;
#119 = PERSON_AND_ORGANIZATION ( #78, #65 ) ;
#120 = ORIENTED_EDGE ( 'NONE', *, *, #101, .T. ) ;
#121 = CYLINDRICAL_SURFACE ( 'NONE', #39, 12.50000000000000000 ) ;
#122 = ORIENTED_EDGE ( 'NONE', *, *, #177, .F. ) ;
#123 = CYLINDRICAL_SURFACE ( 'NONE', #126, 12.50000000000000000 ) ;
#124 = LOCAL_TIME ( 13, 30, 57.00000000000000000, #105 ) ;
#125 = CARTESIAN_POINT ( 'NONE',  ( -2.500000000000000000, 1.527746881936323400E-015, 12.45000000000000300 ) ) ;
#126 = AXIS2_PLACEMENT_3D ( 'NONE', #176, #22, #200 ) ;
#127 = CARTESIAN_POINT ( 'NONE',  ( -2.450000000000000200, 0.0000000000000000000, 0.0000000000000000000 ) ) ;
#128 = LOCAL_TIME ( 13, 30, 57.00000000000000000, #115 ) ;
#129 = VERTEX_POINT ( 'NONE', #125 ) ;
#130 = CARTESIAN_POINT ( 'NONE',  ( 2.500000000000000000, 0.0000000000000000000, 0.0000000000000000000 ) ) ;
#131 = DIRECTION ( 'NONE',  ( -1.000000000000000000, -0.0000000000000000000, -0.0000000000000000000 ) ) ;
#132 = DIRECTION ( 'NONE',  ( 1.000000000000000000, 0.0000000000000000000, 0.0000000000000000000 ) ) ;
#133 = ORIENTED_EDGE ( 'NONE', *, *, #114, .T. ) ;
#134 = LOCAL_TIME ( 13, 30, 57.00000000000000000, #209 ) ;
#135 = VECTOR ( 'NONE', #6, 1000.000000000000000 ) ;
#136 = AXIS2_PLACEMENT_3D ( 'NONE', #61, #199, #60 ) ;
#137 = SECURITY_CLASSIFICATION ( '', '', #11 ) ;
#138 = PERSON_AND_ORGANIZATION_ROLE ( 'classification_officer' ) ;
#139 = APPROVAL_STATUS ( 'not_yet_approved' ) ;
#140 = EDGE_CURVE ( 'NONE', #141, #143, #30, .T. ) ;
#141 = VERTEX_POINT ( 'NONE', #106 ) ;
#142 = PERSON_AND_ORGANIZATION ( #78, #65 ) ;
#143 = VERTEX_POINT ( 'NONE', #108 ) ;
#144 = AXIS2_PLACEMENT_3D ( 'NONE', #245, #43, #83 ) ;
#145 = AXIS2_PLACEMENT_3D ( 'NONE', #110, #179, #66 ) ;
#146 = CIRCLE ( 'NONE', #145, 12.45000000000000600 ) ;
#147 = DIRECTION ( 'NONE',  ( 1.000000000000000000, -0.0000000000000000000, -0.0000000000000000000 ) ) ;
#148 = AXIS2_PLACEMENT_3D ( 'NONE', #127, #147, #21 ) ;
#149 = DIRECTION ( 'NONE',  ( 0.7071067811865597900, 0.0000000000000000000, -0.7071067811865352500 ) ) ;
#150 = LOCAL_TIME ( 13, 30, 57.00000000000000000, #229 ) ;
#151 = CC_DESIGN_PERSON_AND_ORGANIZATION_ASSIGNMENT ( #4, #138, ( #137 ) ) ;
#152 = ORIENTED_EDGE ( 'NONE', *, *, #177, .T. ) ;
#153 = ADVANCED_FACE ( 'NONE', ( #104 ), #3, .T. ) ;
#154 = AXIS2_PLACEMENT_3D ( 'NONE', #27, #270, #31 ) ;
#155 = CC_DESIGN_DATE_AND_TIME_ASSIGNMENT ( #183, #210, ( #238 ) ) ;
#156 = CARTESIAN_POINT ( 'NONE',  ( 2.500000000000000000, 0.0000000000000000000, 0.0000000000000000000 ) ) ;
#157 = DIRECTION ( 'NONE',  ( 1.000000000000000000, -0.0000000000000000000, -0.0000000000000000000 ) ) ;
#158 = DIRECTION ( 'NONE',  ( 0.0000000000000000000, 0.0000000000000000000, -1.000000000000000000 ) ) ;
#159 = EDGE_LOOP ( 'NONE', ( #214, #99, #231, #64 ) ) ;
#160 = PRODUCT_RELATED_PRODUCT_CATEGORY ( 'detail', '', ( #239 ) ) ;
#161 = APPLICATION_CONTEXT ( 'configuration controlled 3d designs of mechanical parts and assemblies' ) ;
#162 = EDGE_CURVE ( 'NONE', #97, #223, #163, .T. ) ;
#163 = CIRCLE ( 'NONE', #40, 12.45000000000000600 ) ;
#164 = CONICAL_SURFACE ( 'NONE', #171, 12.45000000000000600, 0.7853981633974309600 ) ;
#165 = CALENDAR_DATE ( 2019, 2, 1 ) ;
#166 =( GEOMETRIC_REPRESENTATION_CONTEXT ( 3 ) GLOBAL_UNCERTAINTY_ASSIGNED_CONTEXT ( ( #259 ) ) GLOBAL_UNIT_ASSIGNED_CONTEXT ( ( #52, #73, #230 ) ) REPRESENTATION_CONTEXT ( 'NONE', 'WORKASPACE' ) );
#167 = LINE ( 'NONE', #173, #236 ) ;
#168 = COORDINATED_UNIVERSAL_TIME_OFFSET ( 5, 0, .BEHIND. ) ;
#169 = ORIENTED_EDGE ( 'NONE', *, *, #175, .T. ) ;
#170 = CONICAL_SURFACE ( 'NONE', #237, 12.50000000000000000, 0.7853981633974309600 ) ;
#171 = AXIS2_PLACEMENT_3D ( 'NONE', #130, #82, #47 ) ;
#172 = PRODUCT_DEFINITION_FORMATION_WITH_SPECIFIED_SOURCE ( 'ANY', '', #239, .NOT_KNOWN. ) ;
#173 = CARTESIAN_POINT ( 'NONE',  ( -2.450000000000000200, 0.0000000000000000000, -12.50000000000000000 ) ) ;
#174 = CARTESIAN_POINT ( 'NONE',  ( -2.500000000000000000, 0.0000000000000000000, -12.45000000000000300 ) ) ;
#175 = EDGE_CURVE ( 'NONE', #198, #215, #118, .T. ) ;
#176 = CARTESIAN_POINT ( 'NONE',  ( 2.500000000000000000, 0.0000000000000000000, 0.0000000000000000000 ) ) ;
#177 = EDGE_CURVE ( 'NONE', #223, #97, #146, .T. ) ;
#178 = DIRECTION ( 'NONE',  ( 0.0000000000000000000, 0.0000000000000000000, -1.000000000000000000 ) ) ;
#179 = DIRECTION ( 'NONE',  ( 1.000000000000000000, 0.0000000000000000000, 0.0000000000000000000 ) ) ;
#180 = FACE_OUTER_BOUND ( 'NONE', #260, .T. ) ;
#181 = CARTESIAN_POINT ( 'NONE',  ( -2.450000000000000200, 0.0000000000000000000, 0.0000000000000000000 ) ) ;
#182 = APPROVAL ( #139, 'UNSPECIFIED' ) ;
#183 = DATE_AND_TIME ( #241, #124 ) ;
#184 = AXIS2_PLACEMENT_3D ( 'NONE', #206, #268, #252 ) ;
#185 = DIRECTION ( 'NONE',  ( 0.7071067811865597900, 8.659560562354782500E-017, 0.7071067811865352500 ) ) ;
#186 = PERSON_AND_ORGANIZATION_ROLE ( 'creator' ) ;
#187 = EDGE_LOOP ( 'NONE', ( #112, #15, #50, #120 ) ) ;
#188 = APPROVAL_ROLE ( '' ) ;
#189 = APPROVAL_STATUS ( 'not_yet_approved' ) ;
#190 = AXIS2_PLACEMENT_3D ( 'NONE', #250, #221, #207 ) ;
#191 = EDGE_LOOP ( 'NONE', ( #204, #1 ) ) ;
#192 = ORIENTED_EDGE ( 'NONE', *, *, #67, .F. ) ;
#193 = CC_DESIGN_DATE_AND_TIME_ASSIGNMENT ( #63, #55, ( #137 ) ) ;
#194 = EDGE_CURVE ( 'NONE', #129, #143, #42, .T. ) ;
#195 = ORIENTED_EDGE ( 'NONE', *, *, #117, .F. ) ;
#196 = FACE_OUTER_BOUND ( 'NONE', #191, .T. ) ;
#197 = ORIENTED_EDGE ( 'NONE', *, *, #271, .T. ) ;
#198 = VERTEX_POINT ( 'NONE', #269 ) ;
#199 = DIRECTION ( 'NONE',  ( 1.000000000000000000, -0.0000000000000000000, -0.0000000000000000000 ) ) ;
#200 = DIRECTION ( 'NONE',  ( 0.0000000000000000000, 0.0000000000000000000, 1.000000000000000000 ) ) ;
#201 = CALENDAR_DATE ( 2019, 2, 1 ) ;
#202 = APPROVAL_PERSON_ORGANIZATION ( #142, #258, #257 ) ;
#203 = CARTESIAN_POINT ( 'NONE',  ( -2.450000000000000200, 1.530808498934191500E-015, -12.50000000000000000 ) ) ;
#204 = ORIENTED_EDGE ( 'NONE', *, *, #235, .T. ) ;
#205 = EDGE_CURVE ( 'NONE', #198, #141, #8, .T. ) ;
#206 = CARTESIAN_POINT ( 'NONE',  ( -2.500000000000000000, 0.0000000000000000000, 0.0000000000000000000 ) ) ;
#207 = DIRECTION ( 'NONE',  ( 0.0000000000000000000, 0.0000000000000000000, -1.000000000000000000 ) ) ;
#208 = VECTOR ( 'NONE', #242, 1000.000000000000000 ) ;
#209 = COORDINATED_UNIVERSAL_TIME_OFFSET ( 5, 0, .BEHIND. ) ;
#210 = DATE_TIME_ROLE ( 'creation_date' ) ;
#211 = AXIS2_PLACEMENT_3D ( 'NONE', #23, #220, #109 ) ;
#212 = CALENDAR_DATE ( 2019, 2, 1 ) ;
#213 = FACE_OUTER_BOUND ( 'NONE', #159, .T. ) ;
#214 = ORIENTED_EDGE ( 'NONE', *, *, #243, .F. ) ;
#215 = VERTEX_POINT ( 'NONE', #203 ) ;
#216 = DATE_AND_TIME ( #100, #79 ) ;
#217 = CARTESIAN_POINT ( 'NONE',  ( 2.500000000000000000, 0.0000000000000000000, 0.0000000000000000000 ) ) ;
#218 = CONICAL_SURFACE ( 'NONE', #136, 12.50000000000000000, 0.7853981633974309600 ) ;
#219 = CIRCLE ( 'NONE', #190, 12.45000000000000300 ) ;
#220 = DIRECTION ( 'NONE',  ( 1.000000000000000000, 0.0000000000000000000, 0.0000000000000000000 ) ) ;
#221 = DIRECTION ( 'NONE',  ( -1.000000000000000000, -0.0000000000000000000, -0.0000000000000000000 ) ) ;
#222 = DATE_AND_TIME ( #165, #150 ) ;
#223 = VERTEX_POINT ( 'NONE', #90 ) ;
#224 = ORIENTED_EDGE ( 'NONE', *, *, #205, .F. ) ;
#225 = APPLICATION_CONTEXT ( 'configuration controlled 3d designs of mechanical parts and assemblies' ) ;
#226 = DIRECTION ( 'NONE',  ( -1.000000000000000000, -0.0000000000000000000, -0.0000000000000000000 ) ) ;
#227 = ADVANCED_FACE ( 'NONE', ( #213 ), #170, .T. ) ;
#228 = DIRECTION ( 'NONE',  ( -1.000000000000000000, -0.0000000000000000000, -0.0000000000000000000 ) ) ;
#229 = COORDINATED_UNIVERSAL_TIME_OFFSET ( 5, 0, .BEHIND. ) ;
#230 =( NAMED_UNIT ( * ) SI_UNIT ( $, .STERADIAN. ) SOLID_ANGLE_UNIT ( ) );
#231 = ORIENTED_EDGE ( 'NONE', *, *, #271, .F. ) ;
#232 = CIRCLE ( 'NONE', #267, 12.45000000000000300 ) ;
#233 = CLOSED_SHELL ( 'NONE', ( #227, #103, #248, #70, #153, #244, #48, #91 ) ) ;
#234 = ADVANCED_BREP_SHAPE_REPRESENTATION ( 'Web Model 11878_11887', ( #18, #272 ), #166 ) ;
#235 = EDGE_CURVE ( 'NONE', #19, #129, #232, .T. ) ;
#236 = VECTOR ( 'NONE', #149, 1000.000000000000000 ) ;
#237 = AXIS2_PLACEMENT_3D ( 'NONE', #181, #10, #158 ) ;
#238 = PRODUCT_DEFINITION ( 'UNKNOWN', '', #172, #240 ) ;
#239 = PRODUCT ( 'Web Model 11878_11887', 'Web Model 11878_11887', '', ( #9 ) ) ;
#240 = DESIGN_CONTEXT ( 'detailed design', #161, 'design' ) ;
#241 = CALENDAR_DATE ( 2019, 2, 1 ) ;
#242 = DIRECTION ( 'NONE',  ( -0.7071067811865597900, 8.659560562354782500E-017, -0.7071067811865352500 ) ) ;
#243 = EDGE_CURVE ( 'NONE', #129, #19, #219, .T. ) ;
#244 = ADVANCED_FACE ( 'NONE', ( #196 ), #256, .F. ) ;
#245 = CARTESIAN_POINT ( 'NONE',  ( 2.450000000000003700, 0.0000000000000000000, 0.0000000000000000000 ) ) ;
#246 = EDGE_LOOP ( 'NONE', ( #94, #169, #197, #98 ) ) ;
#247 = CARTESIAN_POINT ( 'NONE',  ( -2.450000000000000200, 1.530808498934191500E-015, 12.50000000000000000 ) ) ;
#248 = ADVANCED_FACE ( 'NONE', ( #75 ), #121, .T. ) ;
#249 = DIRECTION ( 'NONE',  ( 0.0000000000000000000, 0.0000000000000000000, 1.000000000000000000 ) ) ;
#250 = CARTESIAN_POINT ( 'NONE',  ( -2.500000000000000000, 0.0000000000000000000, 0.0000000000000000000 ) ) ;
#251 = ORIENTED_EDGE ( 'NONE', *, *, #235, .F. ) ;
#252 = DIRECTION ( 'NONE',  ( 0.0000000000000000000, 0.0000000000000000000, -1.000000000000000000 ) ) ;
#253 = PERSON_AND_ORGANIZATION ( #78, #65 ) ;
#254 = PERSON_AND_ORGANIZATION ( #78, #65 ) ;
#255 = APPROVAL_DATE_TIME ( #14, #37 ) ;
#256 = PLANE ( 'NONE',  #184 ) ;
#257 = APPROVAL_ROLE ( '' ) ;
#258 = APPROVAL ( #189, 'UNSPECIFIED' ) ;
#259 = UNCERTAINTY_MEASURE_WITH_UNIT (LENGTH_MEASURE( 1.000000000000000100E-005 ), #52, 'distance_accuracy_value', 'NONE');
#260 = EDGE_LOOP ( 'NONE', ( #28, #85, #195, #192 ) ) ;
#261 = ORIENTED_EDGE ( 'NONE', *, *, #45, .F. ) ;
#262 = ORIENTED_EDGE ( 'NONE', *, *, #67, .T. ) ;
#263 = CONICAL_SURFACE ( 'NONE', #26, 12.45000000000000600, 0.7853981633974309600 ) ;
#264 = CARTESIAN_POINT ( 'NONE',  ( 2.500000000000000000, 1.527746881936323600E-015, -12.45000000000000600 ) ) ;
#265 = CARTESIAN_POINT ( 'NONE',  ( 2.500000000000000000, 0.0000000000000000000, 12.50000000000000000 ) ) ;
#266 = CARTESIAN_POINT ( 'NONE',  ( 2.500000000000000000, 0.0000000000000000000, 0.0000000000000000000 ) ) ;
#267 = AXIS2_PLACEMENT_3D ( 'NONE', #49, #228, #69 ) ;
#268 = DIRECTION ( 'NONE',  ( 1.000000000000000000, 0.0000000000000000000, 0.0000000000000000000 ) ) ;
#269 = CARTESIAN_POINT ( 'NONE',  ( 2.450000000000003700, 1.530808498934191500E-015, -12.50000000000000000 ) ) ;
#270 = DIRECTION ( 'NONE',  ( -1.000000000000000000, 0.0000000000000000000, 0.0000000000000000000 ) ) ;
#271 = EDGE_CURVE ( 'NONE', #215, #143, #95, .T. ) ;
#272 = AXIS2_PLACEMENT_3D ( 'NONE', #93, #113, #132 ) ;
#273 = PERSON_AND_ORGANIZATION_ROLE ( 'design_owner' ) ;
#274 = SHAPE_DEFINITION_REPRESENTATION ( #76, #234 ) ;
#275 = APPROVAL_PERSON_ORGANIZATION ( #119, #37, #188 ) ;
ENDSEC;
END-ISO-10303-21;
