  0
SECTION
  2
HEADER
  9
$ACADVER
  1
AC1015
  9
$ACADMAINTVER
 70
    10
  9
$DWGCODEPAGE
  3
ANSI_1252
  9
$INSBASE
 10
0.0
 20
0.0
 30
0.0
  9
$EXTMIN
 10
-0.0032205892619004
 20
130.4532760247987
 30
-0.0000000000112498
  9
$EXTMAX
 10
628.5420470013264
 20
568.7722134126821
 30
0.0000000000002956
  9
$LIMMIN
 10
0.0
 20
0.0
  9
$LIMMAX
 10
12.0
 20
9.0
  9
$ORTHOMODE
 70
     1
  9
$REGENMODE
 70
     1
  9
$FILLMODE
 70
     1
  9
$QTEXTMODE
 70
     0
  9
$MIRRTEXT
 70
     1
  9
$LTSCALE
 40
1.414141
  9
$ATTMODE
 70
     1
  9
$TEXTSIZE
 40
0.2
  9
$TRACEWID
 40
0.05
  9
$TEXTSTYLE
  7
STANDARD
  9
$CLAYER
  8
0
  9
$CELTYPE
  6
CONTINUOUS
  9
$CECOLOR
 62
   256
  9
$CELTSCALE
 40
1.0
  9
$DISPSILH
 70
     0
  9
$DIMSCALE
 40
1.0
  9
$DIMASZ
 40
0.18
  9
$DIMEXO
 40
0.0625
  9
$DIMDLI
 40
0.38
  9
$DIMRND
 40
0.0
  9
$DIMDLE
 40
0.0
  9
$DIMEXE
 40
0.18
  9
$DIMTP
 40
0.0
  9
$DIMTM
 40
0.0
  9
$DIMTXT
 40
0.18
  9
$DIMCEN
 40
0.09
  9
$DIMTSZ
 40
0.0
  9
$DIMTOL
 70
     0
  9
$DIMLIM
 70
     0
  9
$DIMTIH
 70
     1
  9
$DIMTOH
 70
     1
  9
$DIMSE1
 70
     0
  9
$DIMSE2
 70
     0
  9
$DIMTAD
 70
     0
  9
$DIMZIN
 70
     0
  9
$DIMBLK
  1

  9
$DIMASO
 70
     1
  9
$DIMSHO
 70
     1
  9
$DIMPOST
  1

  9
$DIMAPOST
  1

  9
$DIMALT
 70
     0
  9
$DIMALTD
 70
     2
  9
$DIMALTF
 40
25.4
  9
$DIMLFAC
 40
0.5
  9
$DIMTOFL
 70
     0
  9
$DIMTVP
 40
0.0
  9
$DIMTIX
 70
     0
  9
$DIMSOXD
 70
     0
  9
$DIMSAH
 70
     0
  9
$DIMBLK1
  1

  9
$DIMBLK2
  1

  9
$DIMSTYLE
  2
STANDARD
  9
$DIMCLRD
 70
     0
  9
$DIMCLRE
 70
     0
  9
$DIMCLRT
 70
     0
  9
$DIMTFAC
 40
1.0
  9
$DIMGAP
 40
0.09
  9
$DIMJUST
 70
     0
  9
$DIMSD1
 70
     0
  9
$DIMSD2
 70
     0
  9
$DIMTOLJ
 70
     1
  9
$DIMTZIN
 70
     0
  9
$DIMALTZ
 70
     0
  9
$DIMALTTZ
 70
     0
  9
$DIMUPT
 70
     0
  9
$DIMDEC
 70
     4
  9
$DIMTDEC
 70
     4
  9
$DIMALTU
 70
     2
  9
$DIMALTTD
 70
     2
  9
$DIMTXSTY
  7
STANDARD
  9
$DIMAUNIT
 70
     0
  9
$DIMADEC
 70
     0
  9
$DIMALTRND
 40
0.0
  9
$DIMAZIN
 70
     0
  9
$DIMDSEP
 70
    46
  9
$DIMATFIT
 70
     3
  9
$DIMFRAC
 70
     0
  9
$DIMLDRBLK
  1

  9
$DIMLUNIT
 70
     2
  9
$DIMLWD
 70
    -2
  9
$DIMLWE
 70
    -2
  9
$DIMTMOVE
 70
     0
  9
$LUNITS
 70
     2
  9
$LUPREC
 70
     2
  9
$SKETCHINC
 40
0.1
  9
$FILLETRAD
 40
0.0
  9
$AUNITS
 70
     0
  9
$AUPREC
 70
     0
  9
$MENU
  1
.
  9
$ELEVATION
 40
0.0
  9
$PELEVATION
 40
0.0
  9
$THICKNESS
 40
0.0
  9
$LIMCHECK
 70
     0
  9
$CHAMFERA
 40
0.0
  9
$CHAMFERB
 40
0.0
  9
$CHAMFERC
 40
0.0
  9
$CHAMFERD
 40
0.0
  9
$SKPOLY
 70
     0
  9
$TDCREATE
 40
2451745.702353229
  9
$TDUCREATE
 40
2451745.869019895
  9
$TDUPDATE
 40
2453570.551790798
  9
$TDUUPDATE
 40
2453570.718457465
  9
$TDINDWG
 40
0.1080819907
  9
$TDUSRTIMER
 40
0.1080818750
  9
$USRTIMER
 70
     1
  9
$ANGBASE
 50
0.0
  9
$ANGDIR
 70
     0
  9
$PDMODE
 70
     0
  9
$PDSIZE
 40
0.0
  9
$PLINEWID
 40
0.0
  9
$SPLFRAME
 70
     0
  9
$SPLINETYPE
 70
     6
  9
$SPLINESEGS
 70
     8
  9
$HANDSEED
  5
594
  9
$SURFTAB1
 70
     6
  9
$SURFTAB2
 70
     6
  9
$SURFTYPE
 70
     6
  9
$SURFU
 70
     6
  9
$SURFV
 70
     6
  9
$UCSBASE
  2

  9
$UCSNAME
  2

  9
$UCSORG
 10
0.0
 20
0.0
 30
0.0
  9
$UCSXDIR
 10
1.0
 20
0.0
 30
0.0
  9
$UCSYDIR
 10
0.0
 20
1.0
 30
0.0
  9
$UCSORTHOREF
  2

  9
$UCSORTHOVIEW
 70
     0
  9
$UCSORGTOP
 10
0.0
 20
0.0
 30
0.0
  9
$UCSORGBOTTOM
 10
0.0
 20
0.0
 30
0.0
  9
$UCSORGLEFT
 10
0.0
 20
0.0
 30
0.0
  9
$UCSORGRIGHT
 10
0.0
 20
0.0
 30
0.0
  9
$UCSORGFRONT
 10
0.0
 20
0.0
 30
0.0
  9
$UCSORGBACK
 10
0.0
 20
0.0
 30
0.0
  9
$PUCSBASE
  2

  9
$PUCSNAME
  2

  9
$PUCSORG
 10
0.0
 20
0.0
 30
0.0
  9
$PUCSXDIR
 10
1.0
 20
0.0
 30
0.0
  9
$PUCSYDIR
 10
0.0
 20
1.0
 30
0.0
  9
$PUCSORTHOREF
  2

  9
$PUCSORTHOVIEW
 70
     0
  9
$PUCSORGTOP
 10
0.0
 20
0.0
 30
0.0
  9
$PUCSORGBOTTOM
 10
0.0
 20
0.0
 30
0.0
  9
$PUCSORGLEFT
 10
0.0
 20
0.0
 30
0.0
  9
$PUCSORGRIGHT
 10
0.0
 20
0.0
 30
0.0
  9
$PUCSORGFRONT
 10
0.0
 20
0.0
 30
0.0
  9
$PUCSORGBACK
 10
0.0
 20
0.0
 30
0.0
  9
$USERI1
 70
     0
  9
$USERI2
 70
     0
  9
$USERI3
 70
     0
  9
$USERI4
 70
     0
  9
$USERI5
 70
     0
  9
$USERR1
 40
0.0
  9
$USERR2
 40
0.0
  9
$USERR3
 40
0.0
  9
$USERR4
 40
0.0
  9
$USERR5
 40
0.0
  9
$WORLDVIEW
 70
     1
  9
$SHADEDGE
 70
     3
  9
$SHADEDIF
 70
    70
  9
$TILEMODE
 70
     1
  9
$MAXACTVP
 70
    48
  9
$PINSBASE
 10
0.0
 20
0.0
 30
0.0
  9
$PLIMCHECK
 70
     0
  9
$PEXTMIN
 10
1.000000000000000E+20
 20
1.000000000000000E+20
 30
1.000000000000000E+20
  9
$PEXTMAX
 10
-1.000000000000000E+20
 20
-1.000000000000000E+20
 30
-1.000000000000000E+20
  9
$PLIMMIN
 10
0.0
 20
0.0
  9
$PLIMMAX
 10
12.0
 20
9.0
  9
$UNITMODE
 70
     0
  9
$VISRETAIN
 70
     1
  9
$PLINEGEN
 70
     0
  9
$PSLTSCALE
 70
     1
  9
$TREEDEPTH
 70
  3020
  9
$CMLSTYLE
  2
STANDARD
  9
$CMLJUST
 70
     0
  9
$CMLSCALE
 40
1.0
  9
$PROXYGRAPHICS
 70
     1
  9
$MEASUREMENT
 70
     0
  9
$CELWEIGHT
370
    -1
  9
$ENDCAPS
280
     0
  9
$JOINSTYLE
280
     0
  9
$LWDISPLAY
290
     0
  9
$INSUNITS
 70
     0
  9
$HYPERLINKBASE
  1

  9
$STYLESHEET
  1

  9
$XEDIT
290
     1
  9
$CEPSNTYPE
380
     0
  9
$PSTYLEMODE
290
     1
  9
$FINGERPRINTGUID
  2
{D02190D9-F66A-4E20-8BFF-A246C0785559}
  9
$VERSIONGUID
  2
{0447F3B3-3F56-483C-B875-19CA58FA1D14}
  9
$EXTNAMES
290
     1
  9
$PSVPSCALE
 40
0.0
  9
$OLESTARTUP
290
     0
  0
ENDSEC
  0
SECTION
  2
CLASSES
  0
CLASS
  1
ACDBDICTIONARYWDFLT
  2
AcDbDictionaryWithDefault
  3
AutoCAD 2000
 90
        0
280
     0
281
     0
  0
CLASS
  1
ACDBPLACEHOLDER
  2
AcDbPlaceHolder
  3
AutoCAD 2000
 90
        0
280
     0
281
     0
  0
CLASS
  1
LAYOUT
  2
AcDbLayout
  3
AutoCAD 2000
 90
        0
280
     0
281
     0
  0
CLASS
  1
LONG_TRANSACTION
  2
AcDbLongTransaction
  3
AutoCAD 2000
 90
    32768
280
     0
281
     0
  0
CLASS
  1
LWPOLYLINE
  2
AcDbPolyline
  3
AutoCAD 2000
 90
    32768
280
     0
281
     1
  0
CLASS
  1
HATCH
  2
AcDbHatch
  3
AutoCAD 2000
 90
    32768
280
     0
281
     1
  0
CLASS
  1
XRECORD
  2
AcDbXrecord
  3
AutoCAD 2000
 90
    32768
280
     0
281
     0
  0
CLASS
  1
LONG_TRANSACTION
  2
AcDbLongTransaction
  3
AutoCAD 2000
 90
    32768
280
     0
281
     0
  0
CLASS
  1
LWPOLYLINE
  2
AcDbPolyline
  3
AutoCAD 2000
 90
    32768
280
     0
281
     1
  0
CLASS
  1
HATCH
  2
AcDbHatch
  3
AutoCAD 2000
 90
    32768
280
     0
281
     1
  0
CLASS
  1
XRECORD
  2
AcDbXrecord
  3
AutoCAD 2000
 90
    32768
280
     0
281
     0
  0
ENDSEC
  0
SECTION
  2
TABLES
  0
TABLE
  2
VPORT
  5
8
330
0
100
AcDbSymbolTable
 70
    23
  0
VPORT
  5
593
330
8
100
AcDbSymbolTableRecord
100
AcDbViewportTableRecord
  2
*Active
 70
     0
 10
0.0
 20
0.0
 11
1.0
 21
1.0
 12
314.2694132060322
 22
349.6127447187404
 13
0.0
 23
0.0
 14
1.0
 24
1.0
 15
0.0
 25
0.0
 16
0.0
 26
0.0
 36
1.0
 17
0.0
 27
0.0
 37
0.0
 40
442.9984989970067
 41
1.786096256684492
 42
50.0
 43
0.0
 44
0.0
 50
0.0
 51
0.0
 71
     0
 72
   100
 73
     1
 74
     1
 75
     0
 76
     0
 77
     0
 78
     0
281
     0
 65
     1
110
0.0
120
0.0
130
0.0
111
1.0
121
0.0
131
0.0
112
0.0
122
1.0
132
0.0
 79
     0
146
0.0
  0
ENDTAB
  0
TABLE
  2
LTYPE
  5
5
330
0
100
AcDbSymbolTable
 70
     3
  0
LTYPE
  5
12
330
5
100
AcDbSymbolTableRecord
100
AcDbLinetypeTableRecord
  2
BYBLOCK
 70
     0
  3

 72
    65
 73
     0
 40
0.0
  0
LTYPE
  5
13
330
5
100
AcDbSymbolTableRecord
100
AcDbLinetypeTableRecord
  2
BYLAYER
 70
     0
  3

 72
    65
 73
     0
 40
0.0
  0
LTYPE
  5
14
330
5
100
AcDbSymbolTableRecord
100
AcDbLinetypeTableRecord
  2
CONTINUOUS
 70
     0
  3
SOLID LINE
 72
    65
 73
     0
 40
0.0
  0
LTYPE
  5
1F
330
5
100
AcDbSymbolTableRecord
100
AcDbLinetypeTableRecord
  2
HIDDEN
 70
     0
  3
- - - - - - - -
 72
    65
 73
     2
 40
2.7
 49
1.35
 74
     0
 49
-1.35
 74
     0
  0
LTYPE
  5
20
330
5
100
AcDbSymbolTableRecord
100
AcDbLinetypeTableRecord
  2
CENTER
 70
     0
  3
---- - ---- -
 72
    65
 73
     4
 40
10.0
 49
7.0
 74
     0
 49
-1.0
 74
     0
 49
1.0
 74
     0
 49
-1.0
 74
     0
  0
ENDTAB
  0
TABLE
  2
LAYER
  5
2
330
0
100
AcDbSymbolTable
 70
     8
  0
LAYER
  5
E
330
2
100
AcDbSymbolTableRecord
100
AcDbLayerTableRecord
  2
0
 70
     0
 62
     7
  6
CONTINUOUS
370
    -3
390
345
  0
LAYER
  5
23
330
2
100
AcDbSymbolTableRecord
100
AcDbLayerTableRecord
  2
MD_DIMS
 70
     0
 62
     7
  6
CONTINUOUS
370
    -3
390
345
  0
LAYER
  5
24
330
2
100
AcDbSymbolTableRecord
100
AcDbLayerTableRecord
  2
TEXT
 70
     0
 62
     3
  6
CONTINUOUS
370
    -3
390
345
  0
LAYER
  5
27
330
2
100
AcDbSymbolTableRecord
100
AcDbLayerTableRecord
  2
1
 70
     0
 62
     7
  6
CONTINUOUS
370
    -3
390
345
  0
LAYER
  5
4B6
330
2
100
AcDbSymbolTableRecord
100
AcDbLayerTableRecord
  2
BORDER
 70
     0
 62
     7
  6
CONTINUOUS
370
    -3
390
345
  0
LAYER
  5
4B7
330
2
100
AcDbSymbolTableRecord
100
AcDbLayerTableRecord
  2
D1
 70
     0
 62
     7
  6
CONTINUOUS
370
    -3
390
345
  0
LAYER
  5
4B9
330
2
100
AcDbSymbolTableRecord
100
AcDbLayerTableRecord
  2
DEFPOINTS
 70
     0
 62
     7
  6
CONTINUOUS
290
     0
370
    -3
390
345
  0
LAYER
  5
4BA
330
2
100
AcDbSymbolTableRecord
100
AcDbLayerTableRecord
  2
LAYER_1
 70
     0
 62
   160
  6
CONTINUOUS
370
    -3
390
345
  0
ENDTAB
  0
TABLE
  2
STYLE
  5
3
330
0
100
AcDbSymbolTable
 70
     3
  0
STYLE
  5
F
330
3
100
AcDbSymbolTableRecord
100
AcDbTextStyleTableRecord
  2
STANDARD
 70
     0
 40
0.0
 41
1.0
 50
0.0
 71
     0
 42
0.2
  3
MECOXTXT
  4

  0
STYLE
  5
4BB
330
3
100
AcDbSymbolTableRecord
100
AcDbTextStyleTableRecord
  2
COPYRIGHT
 70
     0
 40
0.0
 41
1.0
 50
0.0
 71
     0
 42
2.0
  3
VERDANA.TTF
  4

1001
ACAD
1000
Verdana
1071
       34
  0
STYLE
  5
4BC
330
3
100
AcDbSymbolTableRecord
100
AcDbTextStyleTableRecord
  2
BORDER
 70
     0
 40
0.0
 41
1.0
 50
0.0
 71
     0
 42
2.0
  3
technic_.ttf
  4

1001
ACAD
1000
Technic
1071
      514
  0
ENDTAB
  0
TABLE
  2
VIEW
  5
6
330
0
100
AcDbSymbolTable
 70
     0
  0
ENDTAB
  0
TABLE
  2
UCS
  5
7
330
0
100
AcDbSymbolTable
 70
     0
  0
ENDTAB
  0
TABLE
  2
APPID
  5
9
330
0
100
AcDbSymbolTable
 70
     7
  0
APPID
  5
10
330
9
100
AcDbSymbolTableRecord
100
AcDbRegAppTableRecord
  2
ACAD
 70
     0
  0
APPID
  5
2E
330
9
100
AcDbSymbolTableRecord
100
AcDbRegAppTableRecord
  2
MEDUSAPARAMETER
 70
     0
  0
APPID
  5
4BD
330
9
100
AcDbSymbolTableRecord
100
AcDbRegAppTableRecord
  2
CONTENTTABDATA
 70
     0
  0
APPID
  5
4BE
330
9
100
AcDbSymbolTableRecord
100
AcDbRegAppTableRecord
  2
CONTENTCURRENTTAB
 70
     0
  0
APPID
  5
4BF
330
9
100
AcDbSymbolTableRecord
100
AcDbRegAppTableRecord
  2
CONTENTBLOCKDESCRIPTION
 70
     0
  0
APPID
  5
4C0
330
9
100
AcDbSymbolTableRecord
100
AcDbRegAppTableRecord
  2
CONTENTLONGBLOCKNAME
 70
     0
  0
APPID
  5
4C1
330
9
100
AcDbSymbolTableRecord
100
AcDbRegAppTableRecord
  2
CONTENTBLOCKICON
 70
     0
  0
ENDTAB
  0
TABLE
  2
DIMSTYLE
  5
A
330
0
100
AcDbSymbolTable
 70
     1
100
AcDbDimStyleTable
 71
     0
  0
DIMSTYLE
105
32D
330
A
100
AcDbSymbolTableRecord
100
AcDbDimStyleTableRecord
  2
STANDARD
 70
     0
340
F
  0
ENDTAB
  0
TABLE
  2
BLOCK_RECORD
  5
1
330
0
100
AcDbSymbolTable
 70
    14
  0
BLOCK_RECORD
  5
18
102
{ACAD_XDICTIONARY
360
53E
102
}
330
1
100
AcDbSymbolTableRecord
100
AcDbBlockTableRecord
  2
*MODEL_SPACE
340
578
  0
BLOCK_RECORD
  5
15
102
{ACAD_XDICTIONARY
360
53C
102
}
330
1
100
AcDbSymbolTableRecord
100
AcDbBlockTableRecord
  2
*PAPER_SPACE
340
579
  0
BLOCK_RECORD
  5
2F
330
1
100
AcDbSymbolTableRecord
100
AcDbBlockTableRecord
  2
FUNV001
340
0
102
{BLKREFS
331
6F
331
76
331
79
331
81
331
84
331
98
331
9B
331
A3
331
A6
331
B1
331
B4
331
E0
331
E3
331
EE
331
F1
331
112
331
115
331
123
331
12A
331
12D
331
130
331
133
331
196
331
199
102
}
  0
BLOCK_RECORD
  5
33
330
1
100
AcDbSymbolTableRecord
100
AcDbBlockTableRecord
  2
FUNV002
340
0
102
{BLKREFS
331
6D
331
74
331
77
331
7F
331
82
331
96
331
99
331
A1
331
A4
331
AF
331
B2
331
DE
331
E1
331
EC
331
EF
331
110
331
113
331
121
331
128
331
12B
331
12E
331
131
331
194
331
197
102
}
  0
BLOCK_RECORD
  5
3B
330
1
100
AcDbSymbolTableRecord
100
AcDbBlockTableRecord
  2
FUNV014
340
0
102
{BLKREFS
331
71
331
7B
331
9F
331
AA
331
B8
331
F5
331
117
331
11F
331
125
331
135
331
192
102
}
  0
BLOCK_RECORD
  5
41
330
1
100
AcDbSymbolTableRecord
100
AcDbBlockTableRecord
  2
FUNV015
340
0
102
{BLKREFS
331
73
331
7D
331
86
331
88
331
9E
331
A9
331
B7
331
E5
331
E7
331
E9
331
EB
331
F4
331
119
331
11E
331
127
331
137
331
157
331
191
102
}
  0
BLOCK_RECORD
  5
376
330
1
100
AcDbSymbolTableRecord
100
AcDbBlockTableRecord
  2
AI9-BLK4
340
0
102
{BLKREFS
331
37D
102
}
  0
BLOCK_RECORD
  5
37C
330
1
100
AcDbSymbolTableRecord
100
AcDbBlockTableRecord
  2
THOR_COMPANY_LOGO
340
0
102
{BLKREFS
331
4E7
102
}
  0
BLOCK_RECORD
  5
3A2
330
1
100
AcDbSymbolTableRecord
100
AcDbBlockTableRecord
  2
*U6
340
0
102
{BLKREFS
331
377
102
}
  0
BLOCK_RECORD
  5
3BE
330
1
100
AcDbSymbolTableRecord
100
AcDbBlockTableRecord
  2
*U7
340
0
102
{BLKREFS
331
378
102
}
  0
BLOCK_RECORD
  5
3DF
330
1
100
AcDbSymbolTableRecord
100
AcDbBlockTableRecord
  2
*U8
340
0
102
{BLKREFS
331
379
102
}
  0
BLOCK_RECORD
  5
412
330
1
100
AcDbSymbolTableRecord
100
AcDbBlockTableRecord
  2
*U9
340
0
102
{BLKREFS
331
37E
102
}
  0
BLOCK_RECORD
  5
433
330
1
100
AcDbSymbolTableRecord
100
AcDbBlockTableRecord
  2
*U10
340
0
102
{BLKREFS
331
37F
102
}
  0
BLOCK_RECORD
  5
462
330
1
100
AcDbSymbolTableRecord
100
AcDbBlockTableRecord
  2
*U11
340
0
102
{BLKREFS
331
380
102
}
  0
BLOCK_RECORD
  5
481
330
1
100
AcDbSymbolTableRecord
100
AcDbBlockTableRecord
  2
*U12
340
0
102
{BLKREFS
331
381
102
}
  0
BLOCK_RECORD
  5
4C2
330
1
100
AcDbSymbolTableRecord
100
AcDbBlockTableRecord
  2
A3-LANDSCAPE-THOR-LABS
340
0
102
{BLKREFS
331
509
102
}
  0
ENDTAB
  0
ENDSEC
  0
SECTION
  2
BLOCKS
  0
BLOCK
  5
19
330
18
100
AcDbEntity
  8
0
100
AcDbBlockBegin
  2
*MODEL_SPACE
 70
     0
 10
0.0
 20
0.0
 30
0.0
  3
*MODEL_SPACE
  1

  0
ENDBLK
  5
1A
330
18
100
AcDbEntity
  8
0
100
AcDbBlockEnd
  0
BLOCK
  5
16
330
15
100
AcDbEntity
 67
     1
  8
0
100
AcDbBlockBegin
  2
*PAPER_SPACE
 70
     0
 10
0.0
 20
0.0
 30
0.0
  3
*PAPER_SPACE
  1

  0
ENDBLK
  5
17
330
15
100
AcDbEntity
 67
     1
  8
0
100
AcDbBlockEnd
  0
BLOCK
  5
30
330
2F
100
AcDbEntity
  8
0
100
AcDbBlockBegin
  2
FUNV001
 70
     0
 10
0.0
 20
0.0
 30
0.0
  3
FUNV001
  1

  0
POINT
  5
31
330
2F
100
AcDbEntity
  8
0
 62
     0
100
AcDbPoint
 10
0.0
 20
0.0
 30
0.0
  0
ENDBLK
  5
32
330
2F
100
AcDbEntity
  8
0
100
AcDbBlockEnd
  0
BLOCK
  5
34
330
33
100
AcDbEntity
  8
0
100
AcDbBlockBegin
  2
FUNV002
 70
     0
 10
0.0
 20
0.0
 30
0.0
  3
FUNV002
  1

  0
POINT
  5
35
330
33
100
AcDbEntity
  8
0
 62
     0
100
AcDbPoint
 10
0.0
 20
0.0
 30
0.0
  0
ENDBLK
  5
36
330
33
100
AcDbEntity
  8
0
100
AcDbBlockEnd
  0
BLOCK
  5
3C
330
3B
100
AcDbEntity
  8
0
100
AcDbBlockBegin
  2
FUNV014
 70
     0
 10
0.0
 20
0.0
 30
0.0
  3
FUNV014
  1

  0
LINE
  5
3D
330
3B
100
AcDbEntity
  8
0
  6
Continuous
 62
     0
100
AcDbLine
 10
0.0
 20
0.0
 30
0.0
 11
2.399999999999999
 21
0.8
 31
0.0
  0
LINE
  5
3E
330
3B
100
AcDbEntity
  8
0
  6
Continuous
 62
     0
100
AcDbLine
 10
2.399999999999999
 20
0.8
 30
0.0
 11
2.399999999999999
 21
-0.8
 31
0.0
  0
LINE
  5
3F
330
3B
100
AcDbEntity
  8
0
  6
Continuous
 62
     0
100
AcDbLine
 10
2.399999999999999
 20
-0.8
 30
0.0
 11
0.0
 21
0.0
 31
0.0
  0
ENDBLK
  5
40
330
3B
100
AcDbEntity
  8
0
100
AcDbBlockEnd
  0
BLOCK
  5
42
330
41
100
AcDbEntity
  8
0
100
AcDbBlockBegin
  2
FUNV015
 70
     0
 10
0.0
 20
0.0
 30
0.0
  3
FUNV015
  1

  0
LINE
  5
43
330
41
100
AcDbEntity
  8
0
  6
Continuous
 62
     0
100
AcDbLine
 10
0.0
 20
0.0
 30
0.0
 11
-2.399999999999999
 21
0.8
 31
0.0
  0
LINE
  5
44
330
41
100
AcDbEntity
  8
0
  6
Continuous
 62
     0
100
AcDbLine
 10
-2.399999999999999
 20
0.8
 30
0.0
 11
-2.399999999999999
 21
-0.8
 31
0.0
  0
LINE
  5
45
330
41
100
AcDbEntity
  8
0
  6
Continuous
 62
     0
100
AcDbLine
 10
-2.399999999999999
 20
-0.8
 30
0.0
 11
0.0
 21
0.0
 31
0.0
  0
ENDBLK
  5
46
330
41
100
AcDbEntity
  8
0
100
AcDbBlockEnd
  0
BLOCK
  5
37A
330
376
100
AcDbEntity
  8
0
 62
     7
100
AcDbBlockBegin
  2
AI9-BLK4
 70
     0
 10
0.0
 20
0.0
 30
0.0
  3
AI9-BLK4
  1

  0
INSERT
  5
377
330
376
100
AcDbEntity
  8
LAYER_1
  6
Continuous
 62
     7
100
AcDbBlockReference
  2
*U6
 10
0.0
 20
0.0
 30
0.0
1001
ACAD
1002
{
1000
R14_HATCH_DATA
1000
4F1B
1011
1.0
1021
0.0
1031
0.0
1011
0.0
1021
1.0
1031
0.0
1011
0.0
1021
0.0
1031
1.0
1040
0.0
1010
0.0
1020
0.0
1030
1.0
1000
SOLID
1070
     1
1070
     0
1071
        1
1071
        1
1071
        1
1070
     4
1070
     3
1070
     0
1070
     0
1071
       23
1071
       19
1040
0.0
1040
0.0
1040
0.0
1040
0.0
1040
1.0
1040
1.0
1040
1.0
1040
2.0
1040
2.0
1040
2.0
1040
3.0
1040
3.0
1040
3.0
1040
4.0
1040
4.0
1040
4.0
1040
5.0
1040
5.0
1040
5.0
1040
6.0
1040
6.0
1040
6.0
1040
6.0
1040
3.158463541666666
1040
-7.689280870225691
1040
3.158463541666666
1040
-7.689280870225691
1040
-3.103342013888888
1040
-7.689280870225691
1040
-3.103342013888888
1040
-7.689280870225691
1040
-3.103342013888888
1040
-7.689280870225691
1040
-3.103342013888888
1040
-6.410461425781249
1040
-3.103342013888888
1040
-6.410461425781249
1040
-3.103342013888888
1040
-6.410461425781249
1040
2.089105902777775
1040
-6.410461425781249
1040
2.089105902777775
1040
-6.410461425781249
1040
2.089105902777775
1040
-6.410461425781249
1040
2.089105902777775
1040
-3.235461425781248
1040
2.089105902777775
1040
-3.235461425781248
1040
2.089105902777775
1040
-3.235461425781248
1040
3.158463541666666
1040
-3.235461425781248
1040
3.158463541666666
1040
-3.235461425781248
1040
3.158463541666666
1040
-3.235461425781248
1040
3.158463541666666
1040
-7.689280870225691
1040
3.158463541666666
1040
-7.689280870225691
1071
        0
1070
     0
1070
     1
1071
        1
1040
0.0
1040
0.0
1040
0.0
1002
}
  0
INSERT
  5
378
330
376
100
AcDbEntity
  8
LAYER_1
  6
Continuous
 62
     7
100
AcDbBlockReference
  2
*U7
 10
0.0
 20
0.0
 30
0.0
1001
ACAD
1002
{
1000
R14_HATCH_DATA
1000
4F1C
1011
1.0
1021
0.0
1031
0.0
1011
0.0
1021
1.0
1031
0.0
1011
0.0
1021
0.0
1031
1.0
1040
0.0
1010
0.0
1020
0.0
1030
1.0
1000
SOLID
1070
     1
1070
     0
1071
        1
1071
        1
1071
        1
1070
     4
1070
     3
1070
     0
1070
     0
1071
       29
1071
       25
1040
0.0
1040
0.0
1040
0.0
1040
0.0
1040
1.0
1040
1.0
1040
1.0
1040
2.0
1040
2.0
1040
2.0
1040
3.0
1040
3.0
1040
3.0
1040
4.0
1040
4.0
1040
4.0
1040
5.0
1040
5.0
1040
5.0
1040
6.0
1040
6.0
1040
6.0
1040
7.0
1040
7.0
1040
7.0
1040
8.0
1040
8.0
1040
8.0
1040
8.0
1040
3.158463541666666
1040
-1.567518446180554
1040
3.158463541666666
1040
-1.567518446180554
1040
-2.089105902777775
1040
-1.567518446180554
1040
-2.089105902777775
1040
-1.567518446180554
1040
-2.089105902777775
1040
-1.567518446180554
1040
-2.089105902777775
1040
-3.430626085069443
1040
-2.089105902777775
1040
-3.430626085069443
1040
-2.089105902777775
1040
-3.430626085069443
1040
-3.158463541666666
1040
-3.430626085069443
1040
-3.158463541666666
1040
-3.430626085069443
1040
-3.158463541666666
1040
-3.430626085069443
1040
-3.158463541666666
1040
1.574408637152775
1040
-3.158463541666666
1040
1.574408637152775
1040
-3.158463541666666
1040
1.574408637152775
1040
-2.089105902777775
1040
1.574408637152775
1040
-2.089105902777775
1040
1.574408637152775
1040
-2.089105902777775
1040
1.574408637152775
1040
-2.089105902777775
1040
-0.2886990017361111
1040
-2.089105902777775
1040
-0.2886990017361111
1040
-2.089105902777775
1040
-0.2886990017361111
1040
3.158463541666666
1040
-0.2886990017361111
1040
3.158463541666666
1040
-0.2886990017361111
1040
3.158463541666666
1040
-0.2886990017361111
1040
3.158463541666666
1040
-1.567518446180554
1040
3.158463541666666
1040
-1.567518446180554
1071
        0
1070
     0
1070
     1
1071
        1
1040
0.0
1040
0.0
1040
0.0
1002
}
  0
INSERT
  5
379
330
376
100
AcDbEntity
  8
LAYER_1
  6
Continuous
 62
     7
100
AcDbBlockReference
  2
*U8
 10
0.0
 20
0.0
 30
0.0
1001
ACAD
1002
{
1000
R14_HATCH_DATA
1000
4F1D
1011
1.0
1021
0.0
1031
0.0
1011
0.0
1021
1.0
1031
0.0
1011
0.0
1021
0.0
1031
1.0
1040
0.0
1010
0.0
1020
0.0
1030
1.0
1000
SOLID
1070
     1
1070
     0
1071
        2
1071
       16
1071
        1
1070
     4
1070
     3
1070
     0
1070
     0
1071
       38
1071
       34
1040
0.0
1040
0.0
1040
0.0
1040
0.0
1040
1.0
1040
1.0
1040
1.0
1040
2.0
1040
2.0
1040
2.0
1040
3.0
1040
3.0
1040
3.0
1040
4.0
1040
4.0
1040
4.0
1040
5.0
1040
5.0
1040
5.0
1040
6.0
1040
6.0
1040
6.0
1040
7.0
1040
7.0
1040
7.0
1040
8.0
1040
8.0
1040
8.0
1040
9.0
1040
9.0
1040
9.0
1040
10.0
1040
10.0
1040
10.0
1040
11.0
1040
11.0
1040
11.0
1040
11.0
1040
-2.089105902777775
1040
3.687457953559026
1040
-2.089105902777775
1040
3.687457953559026
1040
2.089105902777775
1040
3.687457953559026
1040
2.089105902777775
1040
3.687457953559026
1040
2.089105902777775
1040
3.687457953559026
1040
2.089105902777775
1040
4.635548231336803
1040
2.089105902777775
1040
4.635548231336803
1040
2.089105902777775
1040
4.990220811631943
1040
2.069124348958333
1040
5.24619140625
1040
2.02881673177083
1040
5.403460015190971
1040
1.977484809027775
1040
5.609476725260416
1040
1.889979383680555
1040
5.780353461371527
1040
1.766644965277775
1040
5.916262478298606
1040
1.643310546874999
1040
6.051999240451387
1040
1.440049913194444
1040
6.162931315104166
1040
1.157552083333333
1040
6.248714192708332
1040
0.8750542534722221
1040
6.334497070312497
1040
0.489892578125
1040
6.377388509114582
1040
0.0020670572916667
1040
6.377388509114582
1040
-0.4854139539930555
1040
6.377388509114582
1040
-0.8595513237847221
1040
6.334497070312497
1040
-1.120689561631944
1040
6.248714192708332
1040
-1.381827799479165
1040
6.162931315104166
1040
-1.585432942708333
1040
6.042697482638887
1040
-1.731849500868055
1040
5.88835720486111
1040
-1.878266059027775
1040
5.733844672309027
1040
-1.977140299479166
1040
5.53799099392361
1040
-2.02881673177083
1040
5.300623914930553
1040
-2.06877983940972
1040
5.123201497395831
1040
-2.089105902777775
1040
4.775591362847221
1040
-2.089105902777775
1040
4.257965766059026
1040
-2.089105902777775
1040
4.257965766059026
1040
-2.089105902777775
1040
3.687457953559026
1040
-2.089105902777775
1040
3.687457953559026
1071
        0
1071
        1
1071
        1
1070
     4
1070
     3
1070
     0
1070
     0
1071
       38
1071
       34
1040
0.0
1040
0.0
1040
0.0
1040
0.0
1040
1.0
1040
1.0
1040
1.0
1040
2.0
1040
2.0
1040
2.0
1040
3.0
1040
3.0
1040
3.0
1040
4.0
1040
4.0
1040
4.0
1040
5.0
1040
5.0
1040
5.0
1040
6.0
1040
6.0
1040
6.0
1040
7.0
1040
7.0
1040
7.0
1040
8.0
1040
8.0
1040
8.0
1040
9.0
1040
9.0
1040
9.0
1040
10.0
1040
10.0
1040
10.0
1040
11.0
1040
11.0
1040
11.0
1040
11.0
1040
-3.158463541666666
1040
2.408638509114583
1040
-3.158463541666666
1040
2.408638509114583
1040
-3.158463541666666
1040
4.733216688368056
1040
-3.158463541666666
1040
4.733216688368056
1040
-3.158463541666666
1040
5.257215711805553
1040
-3.118155924479166
1040
5.656846788194441
1040
-3.037540690104166
1040
5.931937662760415
1040
-2.928331163194443
1040
6.301424153645832
1040
-2.734372287326388
1040
6.617856174045137
1040
-2.45600857204861
1040
6.881405978732637
1040
-2.17730034722222
1040
7.144955783420137
1040
-1.836235894097221
1040
7.345460340711801
1040
-1.432470703124999
1040
7.482919650607636
1040
-1.028705512152777
1040
7.620378960503471
1040
-0.5312337239583334
1040
7.689280870225691
1040
0.0606336805555555
1040
7.689280870225691
1040
0.5804985894097224
1040
7.689280870225691
1040
1.028705512152777
1040
7.624857584635416
1040
1.40490993923611
1040
7.49601101345486
1040
1.864485677083331
1040
7.338397894965276
1040
2.23655598958333
1040
7.113433159722221
1040
2.5207763671875
1040
6.821289062499999
1040
2.736439344618055
1040
6.600802951388887
1040
2.904560004340276
1040
6.302802191840276
1040
3.025138346354166
1040
5.927631293402777
1040
3.114021809895831
1040
5.646856011284722
1040
3.158463541666666
1040
5.271685112847221
1040
3.158463541666666
1040
4.801946343315971
1040
3.158463541666666
1040
4.801946343315971
1040
3.158463541666666
1040
2.408638509114583
1040
3.158463541666666
1040
2.408638509114583
1040
3.158463541666666
1040
2.408638509114583
1040
-3.158463541666666
1040
2.408638509114583
1040
-3.158463541666666
1040
2.408638509114583
1071
        0
1070
     0
1070
     1
1071
        1
1040
0.0
1040
0.0
1040
0.0
1002
}
  0
ENDBLK
  5
37B
330
376
100
AcDbEntity
  8
0
100
AcDbBlockEnd
  0
BLOCK
  5
3A0
330
37C
100
AcDbEntity
  8
0
100
AcDbBlockBegin
  2
THOR_COMPANY_LOGO
 70
     0
 10
0.0
 20
0.0
 30
0.0
  3
THOR_COMPANY_LOGO
  1

  0
INSERT
  5
37D
330
37C
100
AcDbEntity
  8
LAYER_1
 62
     7
100
AcDbBlockReference
  2
AI9-BLK4
 10
36.19242127960738
 20
2.551441332537313
 30
0.0
 41
0.3246753246753247
 42
0.3246753246753247
 43
0.3246753246753247
  0
INSERT
  5
37E
330
37C
100
AcDbEntity
  8
LAYER_1
  6
Continuous
 62
     7
100
AcDbBlockReference
  2
*U9
 10
0.0
 20
0.0
 30
0.0
1001
ACAD
1002
{
1000
R14_HATCH_DATA
1000
4F4F
1011
1.0
1021
0.0
1031
0.0
1011
0.0
1021
1.0
1031
0.0
1011
0.0
1021
0.0
1031
1.0
1040
0.0
1010
0.0
1020
0.0
1030
1.0
1000
SOLID
1070
     1
1070
     0
1071
        1
1071
        1
1071
        1
1070
     4
1070
     3
1070
     0
1070
     0
1071
       29
1071
       25
1040
0.0
1040
0.0
1040
0.0
1040
0.0
1040
1.0
1040
1.0
1040
1.0
1040
2.0
1040
2.0
1040
2.0
1040
3.0
1040
3.0
1040
3.0
1040
4.0
1040
4.0
1040
4.0
1040
5.0
1040
5.0
1040
5.0
1040
6.0
1040
6.0
1040
6.0
1040
7.0
1040
7.0
1040
7.0
1040
8.0
1040
8.0
1040
8.0
1040
8.0
1040
4.21624300549273
1040
3.845085753589493
1040
4.21624300549273
1040
3.845085753589493
1040
2.729203332112692
1040
3.845085753589493
1040
2.729203332112692
1040
3.845085753589493
1040
2.729203332112692
1040
3.845085753589493
1040
2.729203332112692
1040
-0.0070455271303696
1040
2.729203332112692
1040
-0.0070455271303696
1040
2.729203332112692
1040
-0.0070455271303696
1040
1.430637226722974
1040
-0.0070455271303696
1040
1.430637226722974
1040
-0.0070455271303696
1040
1.430637226722974
1040
-0.0070455271303696
1040
1.430637226722974
1040
3.845085753589493
1040
1.430637226722974
1040
3.845085753589493
1040
1.430637226722974
1040
3.845085753589493
1040
-0.0562905929074814
1040
3.845085753589493
1040
-0.0562905929074814
1040
3.845085753589493
1040
-0.0562905929074814
1040
3.845085753589493
1040
-0.0562905929074814
1040
4.957527219729641
1040
-0.0562905929074814
1040
4.957527219729641
1040
-0.0562905929074814
1040
4.957527219729641
1040
4.21624300549273
1040
4.957527219729641
1040
4.21624300549273
1040
4.957527219729641
1040
4.21624300549273
1040
4.957527219729641
1040
4.21624300549273
1040
3.845085753589493
1040
4.21624300549273
1040
3.845085753589493
1071
        0
1070
     0
1070
     1
1071
        1
1040
-11.33433637931501
1040
-44.05773658954073
1040
0.0
1002
}
  0
INSERT
  5
37F
330
37C
100
AcDbEntity
  8
LAYER_1
  6
Continuous
 62
     7
100
AcDbBlockReference
  2
*U10
 10
0.0
 20
0.0
 30
0.0
1001
ACAD
1002
{
1000
R14_HATCH_DATA
1000
4F50
1011
1.0
1021
0.0
1031
0.0
1011
0.0
1021
1.0
1031
0.0
1011
0.0
1021
0.0
1031
1.0
1040
0.0
1010
0.0
1020
0.0
1030
1.0
1000
SOLID
1070
     1
1070
     0
1071
        1
1071
        1
1071
        1
1070
     4
1070
     3
1070
     0
1070
     0
1071
       41
1071
       37
1040
0.0
1040
0.0
1040
0.0
1040
0.0
1040
1.0
1040
1.0
1040
1.0
1040
2.0
1040
2.0
1040
2.0
1040
3.0
1040
3.0
1040
3.0
1040
4.0
1040
4.0
1040
4.0
1040
5.0
1040
5.0
1040
5.0
1040
6.0
1040
6.0
1040
6.0
1040
7.0
1040
7.0
1040
7.0
1040
8.0
1040
8.0
1040
8.0
1040
9.0
1040
9.0
1040
9.0
1040
10.0
1040
10.0
1040
10.0
1040
11.0
1040
11.0
1040
11.0
1040
12.0
1040
12.0
1040
12.0
1040
12.0
1040
4.076202111057341
1040
4.957527219729641
1040
4.076202111057341
1040
4.957527219729641
1040
5.374712289572499
1040
4.957527219729641
1040
5.374712289572499
1040
4.957527219729641
1040
5.374712289572499
1040
4.957527219729641
1040
5.374712289572499
1040
3.149746919517271
1040
5.374712289572499
1040
3.149746919517271
1040
5.374712289572499
1040
3.149746919517271
1040
7.085179827676682
1040
3.149746919517271
1040
7.085179827676682
1040
3.149746919517271
1040
7.085179827676682
1040
3.149746919517271
1040
7.085179827676682
1040
4.957527219729641
1040
7.085179827676682
1040
4.957527219729641
1040
7.085179827676682
1040
4.957527219729641
1040
8.383690006191841
1040
4.957527219729641
1040
8.383690006191841
1040
4.957527219729641
1040
8.383690006191841
1040
4.957527219729641
1040
8.383690006191841
1040
-0.0070455271303696
1040
8.383690006191841
1040
-0.0070455271303696
1040
8.383690006191841
1040
-0.0070455271303696
1040
7.085179827676682
1040
-0.0070455271303696
1040
7.085179827676682
1040
-0.0070455271303696
1040
7.085179827676682
1040
-0.0070455271303696
1040
7.085179827676682
1040
2.03730545337712
1040
7.085179827676682
1040
2.03730545337712
1040
7.085179827676682
1040
2.03730545337712
1040
5.374712289572499
1040
2.03730545337712
1040
5.374712289572499
1040
2.03730545337712
1040
5.374712289572499
1040
2.03730545337712
1040
5.374712289572499
1040
-0.0070455271303696
1040
5.374712289572499
1040
-0.0070455271303696
1040
5.374712289572499
1040
-0.0070455271303696
1040
4.076202111057341
1040
-0.0070455271303696
1040
4.076202111057341
1040
-0.0070455271303696
1040
4.076202111057341
1040
-0.0070455271303696
1040
4.076202111057341
1040
4.957527219729641
1040
4.076202111057341
1040
4.957527219729641
1071
        0
1070
     0
1070
     1
1071
        1
1040
-11.33433637931501
1040
-44.05773658954073
1040
0.0
1002
}
  0
INSERT
  5
380
330
37C
100
AcDbEntity
  8
LAYER_1
  6
Continuous
 62
     7
100
AcDbBlockReference
  2
*U11
 10
0.0
 20
0.0
 30
0.0
1001
ACAD
1002
{
1000
R14_HATCH_DATA
1000
4F51
1011
1.0
1021
0.0
1031
0.0
1011
0.0
1021
1.0
1031
0.0
1011
0.0
1021
0.0
1031
1.0
1040
0.0
1010
0.0
1020
0.0
1030
1.0
1000
SOLID
1070
     1
1070
     0
1071
        2
1071
       16
1071
        1
1070
     4
1070
     3
1070
     0
1070
     0
1071
       17
1071
       13
1040
0.0
1040
0.0
1040
0.0
1040
0.0
1040
1.0
1040
1.0
1040
1.0
1040
2.0
1040
2.0
1040
2.0
1040
3.0
1040
3.0
1040
3.0
1040
4.0
1040
4.0
1040
4.0
1040
4.0
1040
10.83384639006391
1040
1.001204171304405
1040
11.67163097418635
1040
1.001204171304405
1040
11.99276308914176
1040
1.738320380833078
1040
11.99276308914176
1040
2.475324736611705
1040
11.99276308914176
1040
3.212329092390335
1040
11.67163097418635
1040
3.949333448168964
1040
10.83384639006391
1040
3.949333448168964
1040
9.996061805941456
1040
3.949333448168964
1040
9.674929690986047
1040
3.212329092390335
1040
9.674929690986047
1040
2.475324736611705
1040
9.674929690986047
1040
1.738320380833078
1040
9.996061805941456
1040
1.001204171304405
1040
10.83384639006391
1040
1.001204171304405
1071
        0
1071
        1
1071
        1
1070
     4
1070
     3
1070
     0
1070
     0
1071
       17
1071
       13
1040
0.0
1040
0.0
1040
0.0
1040
0.0
1040
1.0
1040
1.0
1040
1.0
1040
2.0
1040
2.0
1040
2.0
1040
3.0
1040
3.0
1040
3.0
1040
4.0
1040
4.0
1040
4.0
1040
4.0
1040
10.83384639006391
1040
5.061830841184132
1040
12.40472044873103
1040
5.061830841184132
1040
13.29127326765694
1040
3.914602858933838
1040
13.29127326765694
1040
2.475324736611705
1040
13.29127326765694
1040
1.03610254116367
1040
12.40472044873103
1040
-0.1111813679607202
1040
10.83384639006391
1040
-0.1111813679607202
1040
9.263084185146606
1040
-0.1111813679607202
1040
8.376475439345909
1040
1.03610254116367
1040
8.376475439345909
1040
2.475324736611705
1040
8.376475439345909
1040
3.914602858933838
1040
9.263084185146606
1040
5.061830841184132
1040
10.83384639006391
1040
5.061830841184132
1071
        0
1070
     0
1070
     1
1071
        1
1040
-11.33433637931501
1040
-44.05773658954073
1040
0.0
1002
}
  0
INSERT
  5
381
330
37C
100
AcDbEntity
  8
LAYER_1
  6
Continuous
 62
     7
100
AcDbBlockReference
  2
*U12
 10
0.0
 20
0.0
 30
0.0
1001
ACAD
1002
{
1000
R14_HATCH_DATA
1000
4F52
1011
1.0
1021
0.0
1031
0.0
1011
0.0
1021
1.0
1031
0.0
1011
0.0
1021
0.0
1031
1.0
1040
0.0
1010
0.0
1020
0.0
1030
1.0
1000
SOLID
1070
     1
1070
     0
1071
        2
1071
       16
1071
        1
1070
     4
1070
     3
1070
     0
1070
     0
1071
       20
1071
       16
1040
0.0
1040
0.0
1040
0.0
1040
0.0
1040
1.0
1040
1.0
1040
1.0
1040
2.0
1040
2.0
1040
2.0
1040
3.0
1040
3.0
1040
3.0
1040
4.0
1040
4.0
1040
4.0
1040
5.0
1040
5.0
1040
5.0
1040
5.0
1040
14.59554391427368
1040
2.802161392793691
1040
14.59554391427368
1040
2.802161392793691
1040
15.68460794675822
1040
2.802161392793691
1040
15.68460794675822
1040
2.802161392793691
1040
16.07559272830696
1040
2.802161392793691
1040
16.28509480121236
1040
3.010712708828577
1040
16.28509480121236
1040
3.386093892315075
1040
16.28509480121236
1040
3.754707923953508
1040
15.99187019676946
1040
3.921537791406045
1040
15.62879292573323
1040
3.921537791406045
1040
15.62879292573323
1040
3.921537791406045
1040
14.59554391427368
1040
3.921537791406045
1040
14.59554391427368
1040
3.921537791406045
1040
14.59554391427368
1040
3.921537791406045
1040
14.59554391427368
1040
2.802161392793691
1040
14.59554391427368
1040
2.802161392793691
1071
        0
1071
        1
1071
        1
1070
     4
1070
     3
1070
     0
1070
     0
1071
       44
1071
       40
1040
0.0
1040
0.0
1040
0.0
1040
0.0
1040
1.0
1040
1.0
1040
1.0
1040
2.0
1040
2.0
1040
2.0
1040
3.0
1040
3.0
1040
3.0
1040
4.0
1040
4.0
1040
4.0
1040
5.0
1040
5.0
1040
5.0
1040
6.0
1040
6.0
1040
6.0
1040
7.0
1040
7.0
1040
7.0
1040
8.0
1040
8.0
1040
8.0
1040
9.0
1040
9.0
1040
9.0
1040
10.0
1040
10.0
1040
10.0
1040
11.0
1040
11.0
1040
11.0
1040
12.0
1040
12.0
1040
12.0
1040
13.0
1040
13.0
1040
13.0
1040
13.0
1040
13.29703373575876
1040
4.957527219729641
1040
13.29703373575876
1040
4.957527219729641
1040
15.83829499863863
1040
4.957527219729641
1040
15.83829499863863
1040
4.957527219729641
1040
16.71791288509234
1040
4.957527219729641
1040
17.5836049797273
1040
4.561285311952429
1040
17.5836049797273
1040
3.560026472863957
1040
17.5836049797273
1040
3.024638500647086
1040
17.3252228182691
1040
2.517102112068154
1040
16.80163541662984
1040
2.315429801631375
1040
16.80163541662984
1040
2.315429801631375
1040
16.80163541662984
1040
2.301504009812866
1040
16.80163541662984
1040
2.301504009812866
1040
17.33226960449065
1040
2.176339664066738
1040
17.48590072949625
1040
1.585360378324029
1040
17.52773403182751
1040
1.112498652106125
1040
17.54165982364648
1040
0.904003262946261
1040
17.56263240168677
1040
0.1738219858897944
1040
17.73718017785812
1040
-0.0070455271303696
1040
17.73718017785812
1040
-0.0070455271303696
1040
16.45253986428714
1040
-0.0070455271303696
1040
16.45253986428714
1040
-0.0070455271303696
1040
16.34090982223737
1040
0.1599521209463071
1040
16.31993724419682
1040
0.6466277852336013
1040
16.30601145237787
1040
0.7856619959232172
1040
16.27111308251861
1040
1.286319378904964
1040
16.18733462410632
1040
1.800846626831121
1040
15.57991283718021
1040
1.800846626831121
1040
15.57991283718021
1040
1.800846626831121
1040
14.59554391427368
1040
1.800846626831121
1040
14.59554391427368
1040
1.800846626831121
1040
14.59554391427368
1040
1.800846626831121
1040
14.59554391427368
1040
-0.0070455271303696
1040
14.59554391427368
1040
-0.0070455271303696
1040
14.59554391427368
1040
-0.0070455271303696
1040
13.29703373575876
1040
-0.0070455271303696
1040
13.29703373575876
1040
-0.0070455271303696
1040
13.29703373575876
1040
-0.0070455271303696
1040
13.29703373575876
1040
4.957527219729641
1040
13.29703373575876
1040
4.957527219729641
1071
        0
1070
     0
1070
     1
1071
        1
1040
-11.33433637931501
1040
-44.05773658954073
1040
0.0
1002
}
  0
LWPOLYLINE
  5
382
330
37C
100
AcDbEntity
  8
LAYER_1
 62
     7
100
AcDbPolyline
 90
        4
 70
     1
 43
0.0
 10
23.1880135761977
 20
1.808103171044662
 10
23.75845770241526
 20
3.561685386646981
 10
23.7725619671802
 20
3.561685386646981
 10
24.32896442206224
 20
1.808103171044662
  0
SPLINE
  5
383
330
37C
100
AcDbEntity
  8
LAYER_1
 62
     7
100
AcDbSpline
210
0.0
220
0.0
230
1.0
 70
    11
 71
     3
 72
    20
 73
    16
 74
     0
 42
0.0000000001
 43
0.0000000001
 40
0.0
 40
0.0
 40
0.0
 40
0.0
 40
1.0
 40
1.0
 40
1.0
 40
2.0
 40
2.0
 40
2.0
 40
3.0
 40
3.0
 40
3.0
 40
4.0
 40
4.0
 40
4.0
 40
5.0
 40
5.0
 40
5.0
 40
5.0
 10
27.51812191186057
 20
3.940497790458372
 30
0.0
 10
27.51812191186057
 20
3.940497790458372
 30
0.0
 10
28.53225837486933
 20
3.940497790458372
 30
0.0
 10
28.53225837486933
 20
3.940497790458372
 30
0.0
 10
28.80707443704212
 20
3.940497790458372
 30
0.0
 10
29.06759805802538
 20
3.821206055441725
 30
0.0
 10
29.06759805802538
 20
3.456498060523336
 30
0.0
 10
29.06759805802538
 20
3.098810913909403
 30
0.0
 10
28.75780312662532
 20
2.979456492746498
 30
0.0
 10
28.53225837486933
 20
2.979456492746498
 30
0.0
 10
28.53225837486933
 20
2.979456492746498
 30
0.0
 10
27.51812191186057
 20
2.979456492746498
 30
0.0
 10
27.51812191186057
 20
2.979456492746498
 30
0.0
 10
27.51812191186057
 20
2.979456492746498
 30
0.0
 10
27.51812191186057
 20
3.940497790458372
 30
0.0
 10
27.51812191186057
 20
3.940497790458372
 30
0.0
  0
SPLINE
  5
384
330
37C
100
AcDbEntity
  8
LAYER_1
 62
     7
100
AcDbSpline
210
0.0
220
0.0
230
1.0
 70
    11
 71
     3
 72
    20
 73
    16
 74
     0
 42
0.0000000001
 43
0.0000000001
 40
0.0
 40
0.0
 40
0.0
 40
0.0
 40
1.0
 40
1.0
 40
1.0
 40
2.0
 40
2.0
 40
2.0
 40
3.0
 40
3.0
 40
3.0
 40
4.0
 40
4.0
 40
4.0
 40
5.0
 40
5.0
 40
5.0
 40
5.0
 10
28.56748798867885
 20
0.9874788450131347
 30
0.0
 10
28.56748798867885
 20
0.9874788450131347
 30
0.0
 10
27.51812191186057
 20
0.9874788450131347
 30
0.0
 10
27.51812191186057
 20
0.9874788450131347
 30
0.0
 10
27.51812191186057
 20
0.9874788450131347
 30
0.0
 10
27.51812191186057
 20
2.137706930051271
 30
0.0
 10
27.51812191186057
 20
2.137706930051271
 30
0.0
 10
27.51812191186057
 20
2.137706930051271
 30
0.0
 10
28.56748798867885
 20
2.137706930051271
 30
0.0
 10
28.56748798867885
 20
2.137706930051271
 30
0.0
 10
28.96203458888773
 20
2.137706930051271
 30
0.0
 10
29.27182952028779
 20
1.990457174110225
 30
0.0
 10
29.27182952028779
 20
1.548582533997334
 30
0.0
 10
29.27182952028779
 20
1.134603228662585
 30
0.0
 10
28.98297176150768
 20
0.9874788450131347
 30
0.0
 10
28.56748798867885
 20
0.9874788450131347
 30
0.0
  0
SPLINE
  5
385
330
37C
100
AcDbEntity
  8
LAYER_1
 62
     7
100
AcDbSpline
210
0.0
220
0.0
230
1.0
 70
     8
 71
     3
 72
    14
 73
    10
 74
     0
 42
0.0000000001
 43
0.0000000001
 40
0.0
 40
0.0
 40
0.0
 40
0.0
 40
1.0
 40
1.0
 40
1.0
 40
2.0
 40
2.0
 40
2.0
 40
3.0
 40
3.0
 40
3.0
 40
3.0
 10
33.4334373522964
 20
2.958456633981223
 30
0.0
 10
32.70088705518171
 20
3.161873176351492
 30
0.0
 10
31.97560835095282
 20
3.232018973242453
 30
0.0
 10
31.97560835095282
 20
3.617914885363052
 30
0.0
 10
31.97560835095282
 20
3.947518638762834
 30
0.0
 10
32.3277791167573
 20
4.045685142722609
 30
0.0
 10
32.60936528265161
 20
4.045685142722609
 30
0.0
 10
33.01093273116403
 20
4.045685142722609
 30
0.0
 10
33.4405835728913
 20
3.898435386782484
 30
0.0
 10
33.41927028339795
 20
3.442519050061596
 30
0.0
  0
SPLINE
  5
386
330
37C
100
AcDbEntity
  8
LAYER_1
 62
     7
100
AcDbSpline
210
0.0
220
0.0
230
1.0
 70
    24
 71
     3
 72
     8
 73
     4
 74
     0
 42
0.0000000001
 43
0.0000000001
 40
3.0
 40
3.0
 40
3.0
 40
3.0
 40
4.0
 40
4.0
 40
4.0
 40
4.0
 10
33.41927028339795
 20
3.442519050061596
 30
0.0
 10
33.41927028339795
 20
3.442519050061596
 30
0.0
 10
34.72941072578196
 20
3.442519050061596
 30
0.0
 10
34.72941072578196
 20
3.442519050061596
 30
0.0
  0
SPLINE
  5
387
330
37C
100
AcDbEntity
  8
LAYER_1
 62
     7
100
AcDbSpline
210
0.0
220
0.0
230
1.0
 70
     8
 71
     3
 72
    14
 73
    10
 74
     0
 42
0.0000000001
 43
0.0000000001
 40
4.0
 40
4.0
 40
4.0
 40
4.0
 40
5.0
 40
5.0
 40
5.0
 40
6.0
 40
6.0
 40
6.0
 40
7.0
 40
7.0
 40
7.0
 40
7.0
 10
34.72941072578196
 20
3.442519050061596
 30
0.0
 10
34.72226450518705
 20
4.571809962479795
 30
0.0
 10
33.71514889048184
 20
5.055747006269496
 30
0.0
 10
32.71505412408014
 20
5.055747006269496
 30
0.0
 10
31.77137688869041
 20
5.055747006269496
 30
0.0
 10
30.66546790856905
 20
4.627914062763681
 30
0.0
 10
30.66546790856905
 20
3.533664705718758
 30
0.0
 10
30.66546790856905
 20
2.614748497828106
 30
0.0
 10
31.4190807505948
 20
2.291977534295853
 30
0.0
 10
32.13758935110219
 20
2.08862367807092
 30
0.0
  0
SPLINE
  5
388
330
37C
100
AcDbEntity
  8
LAYER_1
 62
     7
100
AcDbSpline
210
0.0
220
0.0
230
1.0
 70
     8
 71
     3
 72
    14
 73
    10
 74
     0
 42
0.0000000001
 43
0.0000000001
 40
7.0
 40
7.0
 40
7.0
 40
7.0
 40
8.0
 40
8.0
 40
8.0
 40
9.0
 40
9.0
 40
9.0
 40
10.0
 40
10.0
 40
10.0
 40
10.0
 10
32.13758935110219
 20
2.08862367807092
 30
0.0
 10
32.8629934276222
 20
1.885269821845987
 30
0.0
 10
33.58125128354731
 20
1.801082328347953
 30
0.0
 10
33.58125128354731
 20
1.359082315943467
 30
0.0
 10
33.58125128354731
 20
0.9874788450131347
 30
0.0
 10
33.17278835902226
 20
0.8470618789386934
 30
0.0
 10
32.77836713110451
 20
0.8470618789386934
 30
0.0
 10
32.2219649030376
 20
0.8470618789386934
 30
0.0
 10
31.85587781291697
 20
1.036499410847224
 30
0.0
 10
31.827669047411
 20
1.625686493046495
 30
0.0
  0
SPLINE
  5
389
330
37C
100
AcDbEntity
  8
LAYER_1
 62
     7
100
AcDbSpline
210
0.0
220
0.0
230
1.0
 70
    24
 71
     3
 72
     8
 73
     4
 74
     0
 42
0.0000000001
 43
0.0000000001
 40
10.0
 40
10.0
 40
10.0
 40
10.0
 40
11.0
 40
11.0
 40
11.0
 40
11.0
 10
31.827669047411
 20
1.625686493046495
 30
0.0
 10
31.827669047411
 20
1.625686493046495
 30
0.0
 10
30.5755759758237
 20
1.625686493046495
 30
0.0
 10
30.5755759758237
 20
1.625686493046495
 30
0.0
  0
SPLINE
  5
38A
330
37C
100
AcDbEntity
  8
LAYER_1
 62
     7
100
AcDbSpline
210
0.0
220
0.0
230
1.0
 70
     8
 71
     3
 72
     8
 73
     4
 74
     0
 42
0.0000000001
 43
0.0000000001
 40
11.0
 40
11.0
 40
11.0
 40
11.0
 40
12.0
 40
12.0
 40
12.0
 40
12.0
 10
30.5755759758237
 20
1.625686493046495
 30
0.0
 10
30.53019120643206
 20
2.135450228810849
 30
0.0
 10
30.21049186403214
 20
2.54215794125979
 30
0.0
 10
29.71552205862236
 20
2.684956980865329
 30
0.0
  0
SPLINE
  5
38B
330
37C
100
AcDbEntity
  8
LAYER_1
 62
     7
100
AcDbSpline
210
0.0
220
0.0
230
1.0
 70
     8
 71
     3
 72
    11
 73
     7
 74
     0
 42
0.0000000001
 43
0.0000000001
 40
12.0
 40
12.0
 40
12.0
 40
12.0
 40
13.0
 40
13.0
 40
13.0
 40
14.0
 40
14.0
 40
14.0
 40
14.0
 10
29.71552205862236
 20
2.684956980865329
 30
0.0
 10
30.1099432865401
 20
2.881352674932061
 30
0.0
 10
30.37761312811801
 20
3.246060669849528
 30
0.0
 10
30.37761312811801
 20
3.694956158266878
 30
0.0
 10
30.37761312811801
 20
4.740184949477713
 30
0.0
 10
29.42666429984225
 20
4.964664036758597
 30
0.0
 10
28.5604671403753
 20
4.950685026296856
 30
0.0
  0
SPLINE
  5
38C
330
37C
100
AcDbEntity
  8
LAYER_1
 62
     7
100
AcDbSpline
210
0.0
220
0.0
230
1.0
 70
    24
 71
     3
 72
     8
 73
     4
 74
     0
 42
0.0000000001
 43
0.0000000001
 40
14.0
 40
14.0
 40
14.0
 40
14.0
 40
15.0
 40
15.0
 40
15.0
 40
15.0
 10
28.5604671403753
 20
4.950685026296856
 30
0.0
 10
28.5604671403753
 20
4.950685026296856
 30
0.0
 10
26.20810684176769
 20
4.950685026296856
 30
0.0
 10
26.20810684176769
 20
4.950685026296856
 30
0.0
  0
SPLINE
  5
38D
330
37C
100
AcDbEntity
  8
LAYER_1
 62
     7
100
AcDbSpline
210
0.0
220
0.0
230
1.0
 70
    24
 71
     3
 72
     8
 73
     4
 74
     0
 42
0.0000000001
 43
0.0000000001
 40
15.0
 40
15.0
 40
15.0
 40
15.0
 40
16.0
 40
16.0
 40
16.0
 40
16.0
 10
26.20810684176769
 20
4.950685026296856
 30
0.0
 10
26.20810684176769
 20
4.950685026296856
 30
0.0
 10
26.20810684176769
 20
0.2688448722139284
 30
0.0
 10
26.20810684176769
 20
0.2688448722139284
 30
0.0
  0
SPLINE
  5
38E
330
37C
100
AcDbEntity
  8
LAYER_1
 62
     7
100
AcDbSpline
210
0.0
220
0.0
230
1.0
 70
    24
 71
     3
 72
     8
 73
     4
 74
     0
 42
0.0000000001
 43
0.0000000001
 40
16.0
 40
16.0
 40
16.0
 40
16.0
 40
17.0
 40
17.0
 40
17.0
 40
17.0
 10
26.20810684176769
 20
0.2688448722139284
 30
0.0
 10
26.20810684176769
 20
0.2688448722139284
 30
0.0
 10
24.43459041134075
 20
4.950685026296856
 30
0.0
 10
24.43459041134075
 20
4.950685026296856
 30
0.0
  0
SPLINE
  5
38F
330
37C
100
AcDbEntity
  8
LAYER_1
 62
     7
100
AcDbSpline
210
0.0
220
0.0
230
1.0
 70
    24
 71
     3
 72
     8
 73
     4
 74
     0
 42
0.0000000001
 43
0.0000000001
 40
17.0
 40
17.0
 40
17.0
 40
17.0
 40
18.0
 40
18.0
 40
18.0
 40
18.0
 10
24.43459041134075
 20
4.950685026296856
 30
0.0
 10
24.43459041134075
 20
4.950685026296856
 30
0.0
 10
23.10338742404567
 20
4.950685026296856
 30
0.0
 10
23.10338742404567
 20
4.950685026296856
 30
0.0
  0
SPLINE
  5
390
330
37C
100
AcDbEntity
  8
LAYER_1
 62
     7
100
AcDbSpline
210
0.0
220
0.0
230
1.0
 70
    24
 71
     3
 72
     8
 73
     4
 74
     0
 42
0.0000000001
 43
0.0000000001
 40
18.0
 40
18.0
 40
18.0
 40
18.0
 40
18.8883198850488
 40
18.8883198850488
 40
18.8883198850488
 40
18.8883198850488
 10
23.10338742404567
 20
4.950685026296856
 30
0.0
 10
23.10338742404567
 20
4.950685026296856
 30
0.0
 10
21.89843530415215
 20
1.774002067742009
 30
0.0
 10
21.62929692163126
 20
1.064457431791925
 30
0.0
  0
SPLINE
  5
391
330
37C
100
AcDbEntity
  8
LAYER_1
 62
     7
100
AcDbSpline
210
0.0
220
0.0
230
1.0
 70
    24
 71
     3
 72
     8
 73
     4
 74
     0
 42
0.0000000001
 43
0.0000000001
 40
20.20829135783264
 40
20.20829135783264
 40
20.20829135783264
 40
20.20829135783264
 40
21.0
 40
21.0
 40
21.0
 40
21.0
 10
21.62929692162343
 20
1.064457431770699
 30
0.0
 10
20.9240566308893
 20
1.064457431770699
 30
0.0
 10
19.23113883998171
 20
1.064457431770699
 30
0.0
 10
19.23113883998171
 20
1.064457431770699
 30
0.0
  0
SPLINE
  5
392
330
37C
100
AcDbEntity
  8
LAYER_1
 62
     7
100
AcDbSpline
210
0.0
220
0.0
230
1.0
 70
    24
 71
     3
 72
     8
 73
     4
 74
     0
 42
0.0000000001
 43
0.0000000001
 40
21.0
 40
21.0
 40
21.0
 40
21.0
 40
22.0
 40
22.0
 40
22.0
 40
22.0
 10
19.23113883998171
 20
1.064457431770699
 30
0.0
 10
19.23113883998171
 20
1.064457431770699
 30
0.0
 10
19.23113883998171
 20
4.950685026296856
 30
0.0
 10
19.23113883998171
 20
4.950685026296856
 30
0.0
  0
SPLINE
  5
393
330
37C
100
AcDbEntity
  8
LAYER_1
 62
     7
100
AcDbSpline
210
0.0
220
0.0
230
1.0
 70
    24
 71
     3
 72
     8
 73
     4
 74
     0
 42
0.0000000001
 43
0.0000000001
 40
22.0
 40
22.0
 40
22.0
 40
22.0
 40
23.0
 40
23.0
 40
23.0
 40
23.0
 10
19.23113883998171
 20
4.950685026296856
 30
0.0
 10
19.23113883998171
 20
4.950685026296856
 30
0.0
 10
17.92112376988908
 20
4.950685026296856
 30
0.0
 10
17.92112376988908
 20
4.950685026296856
 30
0.0
  0
SPLINE
  5
394
330
37C
100
AcDbEntity
  8
LAYER_1
 62
     7
100
AcDbSpline
210
0.0
220
0.0
230
1.0
 70
    24
 71
     3
 72
     8
 73
     4
 74
     0
 42
0.0000000001
 43
0.0000000001
 40
23.0
 40
23.0
 40
23.0
 40
23.0
 40
24.0
 40
24.0
 40
24.0
 40
24.0
 10
17.92112376988908
 20
4.950685026296856
 30
0.0
 10
17.92112376988908
 20
4.950685026296856
 30
0.0
 10
17.92112376988908
 20
-0.006723423705456
 30
0.0
 10
17.92112376988908
 20
-0.006723423705456
 30
0.0
  0
SPLINE
  5
395
330
37C
100
AcDbEntity
  8
LAYER_1
 62
     7
100
AcDbSpline
210
0.0
220
0.0
230
1.0
 70
    24
 71
     3
 72
     8
 73
     4
 74
     0
 42
0.0000000001
 43
0.0000000001
 40
24.0
 40
24.0
 40
24.0
 40
24.0
 40
25.0
 40
25.0
 40
25.0
 40
25.0
 10
17.92112376988908
 20
-0.006723423705456
 30
0.0
 10
17.92112376988908
 20
-0.006723423705456
 30
0.0
 10
21.22299111542417
 20
-0.006723423705456
 30
0.0
 10
21.22299111542417
 20
-0.006723423705456
 30
0.0
  0
SPLINE
  5
396
330
37C
100
AcDbEntity
  8
LAYER_1
 62
     7
100
AcDbSpline
210
0.0
220
0.0
230
1.0
 70
    24
 71
     3
 72
     8
 73
     4
 74
     0
 42
0.0000000001
 43
0.0000000001
 40
25.0
 40
25.0
 40
25.0
 40
25.0
 40
26.0
 40
26.0
 40
26.0
 40
26.0
 10
21.22299111542417
 20
-0.006723423705456
 30
0.0
 10
21.22299111542417
 20
-0.006723423705456
 30
0.0
 10
21.57641560413998
 20
-0.006723423705456
 30
0.0
 10
21.57641560413998
 20
-0.006723423705456
 30
0.0
  0
SPLINE
  5
397
330
37C
100
AcDbEntity
  8
LAYER_1
 62
     7
100
AcDbSpline
210
0.0
220
0.0
230
1.0
 70
    24
 71
     3
 72
     8
 73
     4
 74
     0
 42
0.0000000001
 43
0.0000000001
 40
26.0
 40
26.0
 40
26.0
 40
26.0
 40
27.0
 40
27.0
 40
27.0
 40
27.0
 10
21.57641560413998
 20
-0.006723423705456
 30
0.0
 10
21.57641560413998
 20
-0.006723423705456
 30
0.0
 10
22.568173113181
 20
-0.006723423705456
 30
0.0
 10
22.568173113181
 20
-0.006723423705456
 30
0.0
  0
SPLINE
  5
398
330
37C
100
AcDbEntity
  8
LAYER_1
 62
     7
100
AcDbSpline
210
0.0
220
0.0
230
1.0
 70
    24
 71
     3
 72
     8
 73
     4
 74
     0
 42
0.0000000001
 43
0.0000000001
 40
27.0
 40
27.0
 40
27.0
 40
27.0
 40
28.0
 40
28.0
 40
28.0
 40
28.0
 10
22.568173113181
 20
-0.006723423705456
 30
0.0
 10
22.568173113181
 20
-0.006723423705456
 30
0.0
 10
22.88511426517594
 20
0.8400410306351558
 30
0.0
 10
22.88511426517594
 20
0.8400410306351558
 30
0.0
  0
SPLINE
  5
399
330
37C
100
AcDbEntity
  8
LAYER_1
 62
     7
100
AcDbSpline
210
0.0
220
0.0
230
1.0
 70
    24
 71
     3
 72
     8
 73
     4
 74
     0
 42
0.0000000001
 43
0.0000000001
 40
28.0
 40
28.0
 40
28.0
 40
28.0
 40
29.0
 40
29.0
 40
29.0
 40
29.0
 10
22.88511426517594
 20
0.8400410306351558
 30
0.0
 10
22.88511426517594
 20
0.8400410306351558
 30
0.0
 10
24.63882187360317
 20
0.8400410306351558
 30
0.0
 10
24.63882187360317
 20
0.8400410306351558
 30
0.0
  0
SPLINE
  5
39A
330
37C
100
AcDbEntity
  8
LAYER_1
 62
     7
100
AcDbSpline
210
0.0
220
0.0
230
1.0
 70
    24
 71
     3
 72
     8
 73
     4
 74
     0
 42
0.0000000001
 43
0.0000000001
 40
29.0
 40
29.0
 40
29.0
 40
29.0
 40
30.0
 40
30.0
 40
30.0
 40
30.0
 10
24.63882187360317
 20
0.8400410306351558
 30
0.0
 10
24.63882187360317
 20
0.8400410306351558
 30
0.0
 10
24.94861680500322
 20
-0.0134935274267243
 30
0.0
 10
24.94861680500322
 20
-0.0134935274267243
 30
0.0
  0
SPLINE
  5
39B
330
37C
100
AcDbEntity
  8
LAYER_1
 62
     7
100
AcDbSpline
210
0.0
220
0.0
230
1.0
 70
    24
 71
     3
 72
     8
 73
     4
 74
     0
 42
0.0000000001
 43
0.0000000001
 40
30.0
 40
30.0
 40
30.0
 40
30.0
 40
31.0
 40
31.0
 40
31.0
 40
31.0
 10
24.94861680500322
 20
-0.0134935274267243
 30
0.0
 10
24.94861680500322
 20
-0.0134935274267243
 30
0.0
 10
26.20810684176769
 20
-0.0134935274267243
 30
0.0
 10
26.20810684176769
 20
-0.0134935274267243
 30
0.0
  0
SPLINE
  5
39C
330
37C
100
AcDbEntity
  8
LAYER_1
 62
     7
100
AcDbSpline
210
0.0
220
0.0
230
1.0
 70
    24
 71
     3
 72
     8
 73
     4
 74
     0
 42
0.0000000001
 43
0.0000000001
 40
31.0
 40
31.0
 40
31.0
 40
31.0
 40
32.0
 40
32.0
 40
32.0
 40
32.0
 10
26.20810684176769
 20
-0.0134935274267243
 30
0.0
 10
26.20810684176769
 20
-0.0134935274267243
 30
0.0
 10
26.31504940610782
 20
-0.0134935274267243
 30
0.0
 10
26.31504940610782
 20
-0.0134935274267243
 30
0.0
  0
SPLINE
  5
39D
330
37C
100
AcDbEntity
  8
LAYER_1
 62
     7
100
AcDbSpline
210
0.0
220
0.0
230
1.0
 70
    24
 71
     3
 72
     8
 73
     4
 74
     0
 42
0.0000000001
 43
0.0000000001
 40
32.0
 40
32.0
 40
32.0
 40
32.0
 40
33.0
 40
33.0
 40
33.0
 40
33.0
 10
26.31504940610782
 20
-0.0134935274267243
 30
0.0
 10
26.31504940610782
 20
-0.0134935274267243
 30
0.0
 10
28.6239055196908
 20
-0.0134935274267243
 30
0.0
 10
28.6239055196908
 20
-0.0134935274267243
 30
0.0
  0
SPLINE
  5
39E
330
37C
100
AcDbEntity
  8
LAYER_1
 62
     7
100
AcDbSpline
210
0.0
220
0.0
230
1.0
 70
     8
 71
     3
 72
     8
 73
     4
 74
     0
 42
0.0000000001
 43
0.0000000001
 40
33.0
 40
33.0
 40
33.0
 40
33.0
 40
34.0
 40
34.0
 40
34.0
 40
34.0
 10
28.6239055196908
 20
-0.0134935274267243
 30
0.0
 10
29.60895561115565
 20
-0.0134935274267243
 30
0.0
 10
30.42700981082596
 20
0.2565583876827378
 30
0.0
 10
30.56053130088709
 20
1.213525085932968
 30
0.0
  0
SPLINE
  5
39F
330
37C
100
AcDbEntity
  8
LAYER_1
 62
     7
100
AcDbSpline
210
0.0
220
0.0
230
1.0
 70
     8
 71
     3
 72
    14
 73
    10
 74
     0
 42
0.0000000001
 43
0.0000000001
 40
34.0
 40
34.0
 40
34.0
 40
34.0
 40
35.0
 40
35.0
 40
35.0
 40
36.0
 40
36.0
 40
36.0
 40
37.0
 40
37.0
 40
37.0
 40
37.0
 10
30.56053130088709
 20
1.213525085932968
 30
0.0
 10
30.76325829565611
 20
0.2334898861139717
 30
0.0
 10
31.67910288241351
 20
-0.1630626707535302
 30
0.0
 10
32.70088705518171
 20
-0.1630626707535302
 30
0.0
 10
33.80667066301194
 20
-0.1630626707535302
 30
0.0
 10
34.89126635363996
 20
0.243895786277682
 30
0.0
 10
34.89126635363996
 20
1.513478292478724
 30
0.0
 10
34.89126635363996
 20
2.418290117616038
 30
0.0
 10
34.15896680110753
 20
2.755040091610953
 30
0.0
 10
33.4334373522964
 20
2.958456633981223
 30
0.0
  0
ENDBLK
  5
3A1
330
37C
100
AcDbEntity
  8
0
100
AcDbBlockEnd
  0
BLOCK
  5
3BC
330
3A2
100
AcDbEntity
  8
0
100
AcDbBlockBegin
  2
*U6
 70
     1
 10
0.0
 20
0.0
 30
0.0
  3
*U6
  1

  0
SOLID
  5
3A3
330
3A2
100
AcDbEntity
  8
LAYER_1
  6
Continuous
 62
     7
100
AcDbTrace
 10
3.103342013888888
 20
-7.634331597222218
 30
0.0
 11
-3.158463541666666
 21
-7.689280870225691
 31
0.0
 12
-3.003676478068033
 22
-7.689280870225691
 32
0.0
 13
-3.003676478068033
 23
-7.689280870225691
 33
0.0
210
0.0
220
0.0
230
-1.0
  0
SOLID
  5
3A4
330
3A2
100
AcDbEntity
  8
LAYER_1
  6
Continuous
 62
     7
100
AcDbTrace
 10
3.103342013888888
 20
-7.634331597222218
 30
0.0
 11
-3.003676478068033
 21
-7.689280870225691
 31
0.0
 12
-2.580591837565103
 22
-7.689280870225691
 32
0.0
 13
-2.580591837565103
 23
-7.689280870225691
 33
0.0
210
0.0
220
0.0
230
-1.0
  0
SOLID
  5
3A5
330
3A2
100
AcDbEntity
  8
LAYER_1
  6
Continuous
 62
     7
100
AcDbTrace
 10
3.103342013888888
 20
-7.634331597222218
 30
0.0
 11
-2.580591837565103
 21
-7.689280870225691
 31
0.0
 12
-1.177189127604165
 22
-7.689280870225691
 32
0.0
 13
-1.177189127604165
 23
-7.689280870225691
 33
0.0
210
0.0
220
0.0
230
-1.0
  0
SOLID
  5
3A6
330
3A2
100
AcDbEntity
  8
LAYER_1
  6
Continuous
 62
     7
100
AcDbTrace
 10
3.103342013888888
 20
-7.634331597222218
 30
0.0
 11
-1.177189127604165
 21
-7.689280870225691
 31
0.0
 12
2.124934895833331
 22
-7.689280870225691
 32
0.0
 13
2.124934895833331
 23
-7.689280870225691
 33
0.0
210
0.0
220
0.0
230
-1.0
  0
SOLID
  5
3A7
330
3A2
100
AcDbEntity
  8
LAYER_1
  6
Continuous
 62
     7
100
AcDbTrace
 10
3.103342013888888
 20
-7.634331597222218
 30
0.0
 11
2.124934895833331
 21
-7.689280870225691
 31
0.0
 12
2.692487462361653
 22
-7.689280870225691
 32
0.0
 13
2.692487462361653
 23
-7.689280870225691
 33
0.0
210
0.0
220
0.0
230
-1.0
  0
SOLID
  5
3A8
330
3A2
100
AcDbEntity
  8
LAYER_1
  6
Continuous
 62
     7
100
AcDbTrace
 10
3.103342013888888
 20
-7.634331597222218
 30
0.0
 11
2.692487462361653
 21
-7.689280870225691
 31
0.0
 12
3.033019002278646
 22
-7.689280870225691
 32
0.0
 13
3.033019002278646
 23
-7.689280870225691
 33
0.0
210
0.0
220
0.0
230
-1.0
  0
SOLID
  5
3A9
330
3A2
100
AcDbEntity
  8
LAYER_1
  6
Continuous
 62
     7
100
AcDbTrace
 10
-3.158463541666666
 20
-7.278259446885847
 30
0.0
 11
-3.158463541666666
 21
-7.689280870225691
 31
0.0
 12
3.103342013888888
 22
-7.634331597222218
 32
0.0
 13
3.103342013888888
 23
-7.634331597222218
 33
0.0
210
0.0
220
0.0
230
-1.0
  0
SOLID
  5
3AA
330
3A2
100
AcDbEntity
  8
LAYER_1
  6
Continuous
 62
     7
100
AcDbTrace
 10
3.103342013888888
 20
-7.049871148003468
 30
0.0
 11
-3.158463541666666
 21
-7.278259446885847
 31
0.0
 12
3.103342013888888
 22
-7.634331597222218
 32
0.0
 13
3.103342013888888
 23
-7.634331597222218
 33
0.0
210
0.0
220
0.0
230
-1.0
  0
SOLID
  5
3AB
330
3A2
100
AcDbEntity
  8
LAYER_1
  6
Continuous
 62
     7
100
AcDbTrace
 10
3.103342013888888
 20
-6.465410698784721
 30
0.0
 11
-3.158463541666666
 21
-7.278259446885847
 31
0.0
 12
3.103342013888888
 22
-7.049871148003468
 32
0.0
 13
3.103342013888888
 23
-7.049871148003468
 33
0.0
210
0.0
220
0.0
230
-1.0
  0
SOLID
  5
3AC
330
3A2
100
AcDbEntity
  8
LAYER_1
  6
Continuous
 62
     7
100
AcDbTrace
 10
3.045028389824761
 20
-6.410461425781249
 30
0.0
 11
-3.158463541666666
 21
-7.278259446885847
 31
0.0
 12
3.103342013888888
 22
-6.465410698784721
 32
0.0
 13
3.103342013888888
 23
-6.465410698784721
 33
0.0
210
0.0
220
0.0
230
-1.0
  0
SOLID
  5
3AD
330
3A2
100
AcDbEntity
  8
LAYER_1
  6
Continuous
 62
     7
100
AcDbTrace
 10
-3.158463541666666
 20
-7.278259446885847
 30
0.0
 11
-1.960752545462712
 21
-6.410461425781249
 31
0.0
 12
-2.089105902777775
 22
-6.410461425781249
 32
0.0
 13
-2.089105902777775
 23
-6.410461425781249
 33
0.0
210
0.0
220
0.0
230
-1.0
  0
SOLID
  5
3AE
330
3A2
100
AcDbEntity
  8
LAYER_1
  6
Continuous
 62
     7
100
AcDbTrace
 10
-3.158463541666666
 20
-7.278259446885847
 30
0.0
 11
-1.609920035468203
 21
-6.410461425781249
 31
0.0
 12
-1.960752545462712
 22
-6.410461425781249
 32
0.0
 13
-1.960752545462712
 23
-6.410461425781249
 33
0.0
210
0.0
220
0.0
230
-1.0
  0
SOLID
  5
3AF
330
3A2
100
AcDbEntity
  8
LAYER_1
  6
Continuous
 62
     7
100
AcDbTrace
 10
-3.158463541666666
 20
-7.278259446885847
 30
0.0
 11
-0.4461829291449642
 21
-6.410461425781249
 31
0.0
 12
-1.609920035468203
 22
-6.410461425781249
 32
0.0
 13
-1.609920035468203
 23
-6.410461425781249
 33
0.0
210
0.0
220
0.0
230
-1.0
  0
SOLID
  5
3B0
330
3A2
100
AcDbEntity
  8
LAYER_1
  6
Continuous
 62
     7
100
AcDbTrace
 10
-3.158463541666666
 20
-7.278259446885847
 30
0.0
 11
2.29202202690972
 21
-6.410461425781249
 31
0.0
 12
-0.4461829291449642
 22
-6.410461425781249
 32
0.0
 13
-0.4461829291449642
 23
-6.410461425781249
 33
0.0
210
0.0
220
0.0
230
-1.0
  0
SOLID
  5
3B1
330
3A2
100
AcDbEntity
  8
LAYER_1
  6
Continuous
 62
     7
100
AcDbTrace
 10
-3.158463541666666
 20
-7.278259446885847
 30
0.0
 11
3.045028389824761
 21
-6.410461425781249
 31
0.0
 12
2.29202202690972
 22
-6.410461425781249
 32
0.0
 13
2.29202202690972
 23
-6.410461425781249
 33
0.0
210
0.0
220
0.0
230
-1.0
  0
SOLID
  5
3B2
330
3A2
100
AcDbEntity
  8
LAYER_1
  6
Continuous
 62
     7
100
AcDbTrace
 10
-3.158463541666666
 20
-6.280064561631942
 30
0.0
 11
-3.158463541666666
 21
-7.278259446885847
 31
0.0
 12
-2.089105902777775
 22
-6.410461425781249
 32
0.0
 13
-2.089105902777775
 23
-6.410461425781249
 33
0.0
210
0.0
220
0.0
230
-1.0
  0
SOLID
  5
3B3
330
3A2
100
AcDbEntity
  8
LAYER_1
  6
Continuous
 62
     7
100
AcDbTrace
 10
-2.089105902777775
 20
-6.117456054687497
 30
0.0
 11
-3.158463541666666
 21
-6.280064561631942
 31
0.0
 12
-2.089105902777775
 22
-6.410461425781249
 32
0.0
 13
-2.089105902777775
 23
-6.410461425781249
 33
0.0
210
0.0
220
0.0
230
-1.0
  0
SOLID
  5
3B4
330
3A2
100
AcDbEntity
  8
LAYER_1
  6
Continuous
 62
     7
100
AcDbTrace
 10
-2.089105902777775
 20
-5.405871582031247
 30
0.0
 11
-3.158463541666666
 21
-6.280064561631942
 31
0.0
 12
-2.089105902777775
 22
-6.117456054687497
 32
0.0
 13
-2.089105902777775
 23
-6.117456054687497
 33
0.0
210
0.0
220
0.0
230
-1.0
  0
SOLID
  5
3B5
330
3A2
100
AcDbEntity
  8
LAYER_1
  6
Continuous
 62
     7
100
AcDbTrace
 10
-3.158463541666666
 20
-3.931370713975693
 30
0.0
 11
-3.158463541666666
 21
-6.280064561631942
 31
0.0
 12
-2.089105902777775
 22
-5.405871582031247
 32
0.0
 13
-2.089105902777775
 23
-5.405871582031247
 33
0.0
210
0.0
220
0.0
230
-1.0
  0
SOLID
  5
3B6
330
3A2
100
AcDbEntity
  8
LAYER_1
  6
Continuous
 62
     7
100
AcDbTrace
 10
-2.089105902777775
 20
-3.731555175781248
 30
0.0
 11
-3.158463541666666
 21
-3.931370713975693
 31
0.0
 12
-2.089105902777775
 22
-5.405871582031247
 32
0.0
 13
-2.089105902777775
 23
-5.405871582031247
 33
0.0
210
0.0
220
0.0
230
-1.0
  0
SOLID
  5
3B7
330
3A2
100
AcDbEntity
  8
LAYER_1
  6
Continuous
 62
     7
100
AcDbTrace
 10
-3.158463541666666
 20
-3.285479905870223
 30
0.0
 11
-3.158463541666666
 21
-3.931370713975693
 31
0.0
 12
-2.089105902777775
 22
-3.731555175781248
 32
0.0
 13
-2.089105902777775
 23
-3.731555175781248
 33
0.0
210
0.0
220
0.0
230
-1.0
  0
SOLID
  5
3B8
330
3A2
100
AcDbEntity
  8
LAYER_1
  6
Continuous
 62
     7
100
AcDbTrace
 10
-2.089105902777775
 20
-3.271118164062498
 30
0.0
 11
-3.158463541666666
 21
-3.285479905870223
 31
0.0
 12
-2.089105902777775
 22
-3.731555175781248
 32
0.0
 13
-2.089105902777775
 23
-3.731555175781248
 33
0.0
210
0.0
220
0.0
230
-1.0
  0
SOLID
  5
3B9
330
3A2
100
AcDbEntity
  8
LAYER_1
  6
Continuous
 62
     7
100
AcDbTrace
 10
-2.089105902777775
 20
-3.271118164062498
 30
0.0
 11
-2.62378472222222
 21
-3.235461425781248
 31
0.0
 12
-3.112514580620658
 22
-3.235461425781248
 32
0.0
 13
-3.112514580620658
 23
-3.235461425781248
 33
0.0
210
0.0
220
0.0
230
-1.0
  0
SOLID
  5
3BA
330
3A2
100
AcDbEntity
  8
LAYER_1
  6
Continuous
 62
     7
100
AcDbTrace
 10
-2.089105902777775
 20
-3.271118164062498
 30
0.0
 11
-2.135054863823784
 21
-3.235461425781248
 31
0.0
 12
-2.62378472222222
 22
-3.235461425781248
 32
0.0
 13
-2.62378472222222
 23
-3.235461425781248
 33
0.0
210
0.0
220
0.0
230
-1.0
  0
SOLID
  5
3BB
330
3A2
100
AcDbEntity
  8
LAYER_1
  6
Continuous
 62
     7
100
AcDbTrace
 10
-3.112514580620658
 20
-3.235461425781248
 30
0.0
 11
-3.158463541666666
 21
-3.285479905870223
 31
0.0
 12
-2.089105902777775
 22
-3.271118164062498
 32
0.0
 13
-2.089105902777775
 23
-3.271118164062498
 33
0.0
210
0.0
220
0.0
230
-1.0
  0
ENDBLK
  5
3BD
330
3A2
100
AcDbEntity
  8
0
100
AcDbBlockEnd
  0
BLOCK
  5
3DD
330
3BE
100
AcDbEntity
  8
0
100
AcDbBlockBegin
  2
*U7
 70
     1
 10
0.0
 20
0.0
 30
0.0
  3
*U7
  1

  0
SOLID
  5
3BF
330
3BE
100
AcDbEntity
  8
LAYER_1
  6
Continuous
 62
     7
100
AcDbTrace
 10
3.158463541666666
 20
-3.215565999348958
 30
0.0
 11
2.089105902777775
 21
-3.430626085069443
 31
0.0
 12
3.158463541666666
 22
-3.430626085069443
 32
0.0
 13
3.158463541666666
 23
-3.430626085069443
 33
0.0
210
0.0
220
0.0
230
-1.0
  0
SOLID
  5
3C0
330
3BE
100
AcDbEntity
  8
LAYER_1
  6
Continuous
 62
     7
100
AcDbTrace
 10
2.089105902777775
 20
-3.139515516493053
 30
0.0
 11
2.089105902777775
 21
-3.430626085069443
 31
0.0
 12
3.158463541666666
 22
-3.215565999348958
 32
0.0
 13
3.158463541666666
 23
-3.215565999348958
 33
0.0
210
0.0
220
0.0
230
-1.0
  0
SOLID
  5
3C1
330
3BE
100
AcDbEntity
  8
LAYER_1
  6
Continuous
 62
     7
100
AcDbTrace
 10
3.158463541666666
 20
-2.64858940972222
 30
0.0
 11
2.089105902777775
 21
-3.139515516493053
 31
0.0
 12
3.158463541666666
 22
-3.215565999348958
 32
0.0
 13
3.158463541666666
 23
-3.215565999348958
 33
0.0
210
0.0
220
0.0
230
-1.0
  0
SOLID
  5
3C2
330
3BE
100
AcDbEntity
  8
LAYER_1
  6
Continuous
 62
     7
100
AcDbTrace
 10
2.089105902777775
 20
-2.499072265624999
 30
0.0
 11
2.089105902777775
 21
-3.139515516493053
 31
0.0
 12
3.158463541666666
 22
-2.64858940972222
 32
0.0
 13
3.158463541666666
 23
-2.64858940972222
 33
0.0
210
0.0
220
0.0
230
-1.0
  0
SOLID
  5
3C3
330
3BE
100
AcDbEntity
  8
LAYER_1
  6
Continuous
 62
     7
100
AcDbTrace
 10
2.089105902777775
 20
-1.858629014756943
 30
0.0
 11
2.089105902777775
 21
-2.499072265624999
 31
0.0
 12
3.158463541666666
 22
-2.64858940972222
 32
0.0
 13
3.158463541666666
 23
-2.64858940972222
 33
0.0
210
0.0
220
0.0
230
-1.0
  0
SOLID
  5
3C4
330
3BE
100
AcDbEntity
  8
LAYER_1
  6
Continuous
 62
     7
100
AcDbTrace
 10
2.089105902777775
 20
-1.567518446180554
 30
0.0
 11
2.089105902777775
 21
-1.858629014756943
 31
0.0
 12
3.158463541666666
 22
-2.64858940972222
 32
0.0
 13
3.158463541666666
 23
-2.64858940972222
 33
0.0
210
0.0
220
0.0
230
-1.0
  0
SOLID
  5
3C5
330
3BE
100
AcDbEntity
  8
LAYER_1
  6
Continuous
 62
     7
100
AcDbTrace
 10
-3.158463541666666
 20
-1.36770290798611
 30
0.0
 11
-3.158463541666666
 21
-1.567518446180554
 31
0.0
 12
-2.932982042100693
 22
-1.567518446180554
 32
0.0
 13
-2.932982042100693
 23
-1.567518446180554
 33
0.0
210
0.0
220
0.0
230
-1.0
  0
SOLID
  5
3C6
330
3BE
100
AcDbEntity
  8
LAYER_1
  6
Continuous
 62
     7
100
AcDbTrace
 10
-3.158463541666666
 20
-1.36770290798611
 30
0.0
 11
-2.932982042100693
 21
-1.567518446180554
 31
0.0
 12
-2.33853081597222
 22
-1.567518446180554
 32
0.0
 13
-2.33853081597222
 23
-1.567518446180554
 33
0.0
210
0.0
220
0.0
230
-1.0
  0
SOLID
  5
3C7
330
3BE
100
AcDbEntity
  8
LAYER_1
  6
Continuous
 62
     7
100
AcDbTrace
 10
-3.158463541666666
 20
-1.36770290798611
 30
0.0
 11
-2.33853081597222
 21
-1.567518446180554
 31
0.0
 12
-0.5346788194444443
 22
-1.567518446180554
 32
0.0
 13
-0.5346788194444443
 23
-1.567518446180554
 33
0.0
210
0.0
220
0.0
230
-1.0
  0
SOLID
  5
3C8
330
3BE
100
AcDbEntity
  8
LAYER_1
  6
Continuous
 62
     7
100
AcDbTrace
 10
-3.158463541666666
 20
-1.36770290798611
 30
0.0
 11
-0.5346788194444443
 21
-1.567518446180554
 31
0.0
 12
1.269173177083332
 22
-1.567518446180554
 32
0.0
 13
1.269173177083332
 23
-1.567518446180554
 33
0.0
210
0.0
220
0.0
230
-1.0
  0
SOLID
  5
3C9
330
3BE
100
AcDbEntity
  8
LAYER_1
  6
Continuous
 62
     7
100
AcDbTrace
 10
-3.158463541666666
 20
-1.36770290798611
 30
0.0
 11
1.269173177083332
 21
-1.567518446180554
 31
0.0
 12
1.863624403211805
 22
-1.567518446180554
 32
0.0
 13
1.863624403211805
 23
-1.567518446180554
 33
0.0
210
0.0
220
0.0
230
-1.0
  0
SOLID
  5
3CA
330
3BE
100
AcDbEntity
  8
LAYER_1
  6
Continuous
 62
     7
100
AcDbTrace
 10
-3.158463541666666
 20
-1.36770290798611
 30
0.0
 11
1.863624403211805
 21
-1.567518446180554
 31
0.0
 12
2.089105902777775
 22
-1.567518446180554
 32
0.0
 13
2.089105902777775
 23
-1.567518446180554
 33
0.0
210
0.0
220
0.0
230
-1.0
  0
SOLID
  5
3CB
330
3BE
100
AcDbEntity
  8
LAYER_1
  6
Continuous
 62
     7
100
AcDbTrace
 10
3.158463541666666
 20
-0.9281087239583332
 30
0.0
 11
-3.158463541666666
 21
-1.36770290798611
 31
0.0
 12
2.089105902777775
 22
-1.567518446180554
 32
0.0
 13
2.089105902777775
 23
-1.567518446180554
 33
0.0
210
0.0
220
0.0
230
-1.0
  0
SOLID
  5
3CC
330
3BE
100
AcDbEntity
  8
LAYER_1
  6
Continuous
 62
     7
100
AcDbTrace
 10
3.158463541666666
 20
-0.9281087239583332
 30
0.0
 11
2.089105902777775
 21
-1.567518446180554
 31
0.0
 12
3.158463541666666
 22
-2.64858940972222
 32
0.0
 13
3.158463541666666
 23
-2.64858940972222
 33
0.0
210
0.0
220
0.0
230
-1.0
  0
SOLID
  5
3CD
330
3BE
100
AcDbEntity
  8
LAYER_1
  6
Continuous
 62
     7
100
AcDbTrace
 10
-3.158463541666666
 20
-0.9281087239583332
 30
0.0
 11
-3.158463541666666
 21
-1.36770290798611
 31
0.0
 12
3.158463541666666
 22
-0.9281087239583332
 32
0.0
 13
3.158463541666666
 23
-0.9281087239583332
 33
0.0
210
0.0
220
0.0
230
-1.0
  0
SOLID
  5
3CE
330
3BE
100
AcDbEntity
  8
LAYER_1
  6
Continuous
 62
     7
100
AcDbTrace
 10
-3.158463541666666
 20
-0.4885145399305558
 30
0.0
 11
-3.158463541666666
 21
-0.9281087239583332
 31
0.0
 12
3.158463541666666
 22
-0.9281087239583332
 32
0.0
 13
3.158463541666666
 23
-0.9281087239583332
 33
0.0
210
0.0
220
0.0
230
-1.0
  0
SOLID
  5
3CF
330
3BE
100
AcDbEntity
  8
LAYER_1
  6
Continuous
 62
     7
100
AcDbTrace
 10
-3.158463541666666
 20
-0.2886990017361111
 30
0.0
 11
-3.158463541666666
 21
-0.4885145399305558
 31
0.0
 12
3.158463541666666
 22
-0.9281087239583332
 32
0.0
 13
3.158463541666666
 23
-0.9281087239583332
 33
0.0
210
0.0
220
0.0
230
-1.0
  0
SOLID
  5
3D0
330
3BE
100
AcDbEntity
  8
LAYER_1
  6
Continuous
 62
     7
100
AcDbTrace
 10
3.158463541666666
 20
-0.9281087239583332
 30
0.0
 11
-2.932982042100693
 21
-0.2886990017361111
 31
0.0
 12
-3.158463541666666
 22
-0.2886990017361111
 32
0.0
 13
-3.158463541666666
 23
-0.2886990017361111
 33
0.0
210
0.0
220
0.0
230
-1.0
  0
SOLID
  5
3D1
330
3BE
100
AcDbEntity
  8
LAYER_1
  6
Continuous
 62
     7
100
AcDbTrace
 10
3.158463541666666
 20
-0.9281087239583332
 30
0.0
 11
-2.33853081597222
 21
-0.2886990017361111
 31
0.0
 12
-2.932982042100693
 22
-0.2886990017361111
 32
0.0
 13
-2.932982042100693
 23
-0.2886990017361111
 33
0.0
210
0.0
220
0.0
230
-1.0
  0
SOLID
  5
3D2
330
3BE
100
AcDbEntity
  8
LAYER_1
  6
Continuous
 62
     7
100
AcDbTrace
 10
3.158463541666666
 20
-0.9281087239583332
 30
0.0
 11
-0.534678819444445
 21
-0.2886990017361111
 31
0.0
 12
-2.33853081597222
 22
-0.2886990017361111
 32
0.0
 13
-2.33853081597222
 23
-0.2886990017361111
 33
0.0
210
0.0
220
0.0
230
-1.0
  0
SOLID
  5
3D3
330
3BE
100
AcDbEntity
  8
LAYER_1
  6
Continuous
 62
     7
100
AcDbTrace
 10
3.158463541666666
 20
-0.9281087239583332
 30
0.0
 11
1.269173177083332
 21
-0.2886990017361111
 31
0.0
 12
-0.534678819444445
 22
-0.2886990017361111
 32
0.0
 13
-0.534678819444445
 23
-0.2886990017361111
 33
0.0
210
0.0
220
0.0
230
-1.0
  0
SOLID
  5
3D4
330
3BE
100
AcDbEntity
  8
LAYER_1
  6
Continuous
 62
     7
100
AcDbTrace
 10
3.158463541666666
 20
-0.9281087239583332
 30
0.0
 11
1.863624403211805
 21
-0.2886990017361111
 31
0.0
 12
1.269173177083332
 22
-0.2886990017361111
 32
0.0
 13
1.269173177083332
 23
-0.2886990017361111
 33
0.0
210
0.0
220
0.0
230
-1.0
  0
SOLID
  5
3D5
330
3BE
100
AcDbEntity
  8
LAYER_1
  6
Continuous
 62
     7
100
AcDbTrace
 10
3.158463541666666
 20
-0.9281087239583332
 30
0.0
 11
2.089105902777775
 21
-0.2886990017361111
 31
0.0
 12
1.863624403211805
 22
-0.2886990017361111
 32
0.0
 13
1.863624403211805
 23
-0.2886990017361111
 33
0.0
210
0.0
220
0.0
230
-1.0
  0
SOLID
  5
3D6
330
3BE
100
AcDbEntity
  8
LAYER_1
  6
Continuous
 62
     7
100
AcDbTrace
 10
2.089105902777775
 20
0.0024115668402778
 30
0.0
 11
2.089105902777775
 21
-0.2886990017361111
 31
0.0
 12
3.158463541666666
 22
-0.9281087239583332
 32
0.0
 13
3.158463541666666
 23
-0.9281087239583332
 33
0.0
210
0.0
220
0.0
230
-1.0
  0
SOLID
  5
3D7
330
3BE
100
AcDbEntity
  8
LAYER_1
  6
Continuous
 62
     7
100
AcDbTrace
 10
2.089105902777775
 20
0.6428548177083333
 30
0.0
 11
2.089105902777775
 21
0.0024115668402778
 31
0.0
 12
3.158463541666666
 22
-0.9281087239583332
 32
0.0
 13
3.158463541666666
 23
-0.9281087239583332
 33
0.0
210
0.0
220
0.0
230
-1.0
  0
SOLID
  5
3D8
330
3BE
100
AcDbEntity
  8
LAYER_1
  6
Continuous
 62
     7
100
AcDbTrace
 10
3.158463541666666
 20
0.7923719618055556
 30
0.0
 11
2.089105902777775
 21
0.6428548177083333
 31
0.0
 12
3.158463541666666
 22
-0.9281087239583332
 32
0.0
 13
3.158463541666666
 23
-0.9281087239583332
 33
0.0
210
0.0
220
0.0
230
-1.0
  0
SOLID
  5
3D9
330
3BE
100
AcDbEntity
  8
LAYER_1
  6
Continuous
 62
     7
100
AcDbTrace
 10
2.089105902777775
 20
1.283298068576387
 30
0.0
 11
2.089105902777775
 21
0.6428548177083333
 31
0.0
 12
3.158463541666666
 22
0.7923719618055556
 32
0.0
 13
3.158463541666666
 23
0.7923719618055556
 33
0.0
210
0.0
220
0.0
230
-1.0
  0
SOLID
  5
3DA
330
3BE
100
AcDbEntity
  8
LAYER_1
  6
Continuous
 62
     7
100
AcDbTrace
 10
3.158463541666666
 20
1.35934855143229
 30
0.0
 11
2.089105902777775
 21
1.283298068576387
 31
0.0
 12
3.158463541666666
 22
0.7923719618055556
 32
0.0
 13
3.158463541666666
 23
0.7923719618055556
 33
0.0
210
0.0
220
0.0
230
-1.0
  0
SOLID
  5
3DB
330
3BE
100
AcDbEntity
  8
LAYER_1
  6
Continuous
 62
     7
100
AcDbTrace
 10
3.158463541666666
 20
1.35934855143229
 30
0.0
 11
3.158463541666666
 21
1.574408637152775
 31
0.0
 12
2.089105902777775
 22
1.574408637152775
 32
0.0
 13
2.089105902777775
 23
1.574408637152775
 33
0.0
210
0.0
220
0.0
230
-1.0
  0
SOLID
  5
3DC
330
3BE
100
AcDbEntity
  8
LAYER_1
  6
Continuous
 62
     7
100
AcDbTrace
 10
2.089105902777775
 20
1.574408637152775
 30
0.0
 11
2.089105902777775
 21
1.283298068576387
 31
0.0
 12
3.158463541666666
 22
1.35934855143229
 32
0.0
 13
3.158463541666666
 23
1.35934855143229
 33
0.0
210
0.0
220
0.0
230
-1.0
  0
ENDBLK
  5
3DE
330
3BE
100
AcDbEntity
  8
0
100
AcDbBlockEnd
  0
BLOCK
  5
410
330
3DF
100
AcDbEntity
  8
0
100
AcDbBlockBegin
  2
*U8
 70
     1
 10
0.0
 20
0.0
 30
0.0
  3
*U8
  1

  0
SOLID
  5
3E0
330
3DF
100
AcDbEntity
  8
LAYER_1
  6
Continuous
 62
     7
100
AcDbTrace
 10
-3.158463541666666
 20
2.415504077242478
 30
0.0
 11
-3.103853342682123
 21
2.408638509114583
 31
0.0
 12
-2.818838105599084
 22
2.408638509114583
 32
0.0
 13
-2.818838105599084
 23
2.408638509114583
 33
0.0
210
0.0
220
0.0
230
-1.0
  0
SOLID
  5
3E1
330
3DF
100
AcDbEntity
  8
LAYER_1
  6
Continuous
 62
     7
100
AcDbTrace
 10
-3.158463541666666
 20
2.415504077242478
 30
0.0
 11
-2.818838105599084
 21
2.408638509114583
 31
0.0
 12
-1.693355941772459
 22
2.408638509114583
 32
0.0
 13
-1.693355941772459
 23
2.408638509114583
 33
0.0
210
0.0
220
0.0
230
-1.0
  0
SOLID
  5
3E2
330
3DF
100
AcDbEntity
  8
LAYER_1
  6
Continuous
 62
     7
100
AcDbTrace
 10
-3.158463541666666
 20
2.415504077242478
 30
0.0
 11
-1.693355941772459
 21
2.408638509114583
 31
0.0
 12
1.43233545621236
 22
2.408638509114583
 32
0.0
 13
1.43233545621236
 23
2.408638509114583
 33
0.0
210
0.0
220
0.0
230
-1.0
  0
SOLID
  5
3E3
330
3DF
100
AcDbEntity
  8
LAYER_1
  6
Continuous
 62
     7
100
AcDbTrace
 10
-3.158463541666666
 20
2.415504077242478
 30
0.0
 11
1.43233545621236
 21
2.408638509114583
 31
0.0
 12
2.662784868478774
 22
2.408638509114583
 32
0.0
 13
2.662784868478774
 23
2.408638509114583
 33
0.0
210
0.0
220
0.0
230
-1.0
  0
SOLID
  5
3E4
330
3DF
100
AcDbEntity
  8
LAYER_1
  6
Continuous
 62
     7
100
AcDbTrace
 10
-3.158463541666666
 20
2.415504077242478
 30
0.0
 11
2.662784868478774
 21
2.408638509114583
 31
0.0
 12
3.026525541891653
 22
2.408638509114583
 32
0.0
 13
3.026525541891653
 23
2.408638509114583
 33
0.0
210
0.0
220
0.0
230
-1.0
  0
SOLID
  5
3E5
330
3DF
100
AcDbEntity
  8
LAYER_1
  6
Continuous
 62
     7
100
AcDbTrace
 10
-3.158463541666666
 20
2.415504077242478
 30
0.0
 11
3.026525541891653
 21
2.408638509114583
 31
0.0
 12
3.158463541666666
 22
2.408638509114583
 32
0.0
 13
3.158463541666666
 23
2.408638509114583
 33
0.0
210
0.0
220
0.0
230
-1.0
  0
SOLID
  5
3E6
330
3DF
100
AcDbEntity
  8
LAYER_1
  6
Continuous
 62
     7
100
AcDbTrace
 10
3.158463541666666
 20
2.591044259950931
 30
0.0
 11
-3.158463541666666
 21
2.415504077242478
 31
0.0
 12
3.158463541666666
 22
2.408638509114583
 32
0.0
 13
3.158463541666666
 23
2.408638509114583
 33
0.0
210
0.0
220
0.0
230
-1.0
  0
SOLID
  5
3E7
330
3DF
100
AcDbEntity
  8
LAYER_1
  6
Continuous
 62
     7
100
AcDbTrace
 10
-3.158463541666666
 20
2.664764371162485
 30
0.0
 11
-3.158463541666666
 21
2.415504077242478
 31
0.0
 12
3.158463541666666
 22
2.591044259950931
 32
0.0
 13
3.158463541666666
 23
2.591044259950931
 33
0.0
210
0.0
220
0.0
230
-1.0
  0
SOLID
  5
3E8
330
3DF
100
AcDbEntity
  8
LAYER_1
  6
Continuous
 62
     7
100
AcDbTrace
 10
3.158463541666666
 20
3.043839712027046
 30
0.0
 11
-3.158463541666666
 21
2.664764371162485
 31
0.0
 12
3.158463541666666
 22
2.591044259950931
 32
0.0
 13
3.158463541666666
 23
2.591044259950931
 33
0.0
210
0.0
220
0.0
230
-1.0
  0
SOLID
  5
3E9
330
3DF
100
AcDbEntity
  8
LAYER_1
  6
Continuous
 62
     7
100
AcDbTrace
 10
-3.158463541666666
 20
3.165896066029866
 30
0.0
 11
-3.158463541666666
 21
2.664764371162485
 31
0.0
 12
3.158463541666666
 22
3.043839712027046
 32
0.0
 13
3.158463541666666
 23
3.043839712027046
 33
0.0
210
0.0
220
0.0
230
-1.0
  0
SOLID
  5
3EA
330
3DF
100
AcDbEntity
  8
LAYER_1
  6
Continuous
 62
     7
100
AcDbTrace
 10
-1.86446708904372
 20
3.687457953559026
 30
0.0
 11
-3.158463541666666
 21
3.165896066029866
 31
0.0
 12
3.158463541666666
 22
3.043839712027046
 32
0.0
 13
3.158463541666666
 23
3.043839712027046
 33
0.0
210
0.0
220
0.0
230
-1.0
  0
SOLID
  5
3EB
330
3DF
100
AcDbEntity
  8
LAYER_1
  6
Continuous
 62
     7
100
AcDbTrace
 10
3.158463541666666
 20
3.043839712027046
 30
0.0
 11
-1.120038223266599
 21
3.687457953559026
 31
0.0
 12
-1.86446708904372
 22
3.687457953559026
 32
0.0
 13
-1.86446708904372
 23
3.687457953559026
 33
0.0
210
0.0
220
0.0
230
-1.0
  0
SOLID
  5
3EC
330
3DF
100
AcDbEntity
  8
LAYER_1
  6
Continuous
 62
     7
100
AcDbTrace
 10
3.158463541666666
 20
3.043839712027046
 30
0.0
 11
0.9473911656273735
 21
3.687457953559026
 31
0.0
 12
-1.120038223266599
 22
3.687457953559026
 32
0.0
 13
-1.120038223266599
 23
3.687457953559026
 33
0.0
210
0.0
220
0.0
230
-1.0
  0
SOLID
  5
3ED
330
3DF
100
AcDbEntity
  8
LAYER_1
  6
Continuous
 62
     7
100
AcDbTrace
 10
3.158463541666666
 20
3.043839712027046
 30
0.0
 11
1.761248630285261
 21
3.687457953559026
 31
0.0
 12
0.9473911656273735
 22
3.687457953559026
 32
0.0
 13
0.9473911656273735
 23
3.687457953559026
 33
0.0
210
0.0
220
0.0
230
-1.0
  0
SOLID
  5
3EE
330
3DF
100
AcDbEntity
  8
LAYER_1
  6
Continuous
 62
     7
100
AcDbTrace
 10
3.158463541666666
 20
3.043839712027046
 30
0.0
 11
2.089105902777775
 21
3.687457953559026
 31
0.0
 12
1.761248630285261
 22
3.687457953559026
 32
0.0
 13
1.761248630285261
 23
3.687457953559026
 33
0.0
210
0.0
220
0.0
230
-1.0
  0
SOLID
  5
3EF
330
3DF
100
AcDbEntity
  8
LAYER_1
  6
Continuous
 62
     7
100
AcDbTrace
 10
-2.089105902777775
 20
3.690177694956461
 30
0.0
 11
-3.158463541666666
 21
3.165896066029866
 31
0.0
 12
-1.86446708904372
 22
3.687457953559026
 32
0.0
 13
-1.86446708904372
 23
3.687457953559026
 33
0.0
210
0.0
220
0.0
230
-1.0
  0
SOLID
  5
3F0
330
3DF
100
AcDbEntity
  8
LAYER_1
  6
Continuous
 62
     7
100
AcDbTrace
 10
-2.089105902777775
 20
3.987439643012153
 30
0.0
 11
-3.158463541666666
 21
3.165896066029866
 31
0.0
 12
-2.089105902777775
 22
3.690177694956461
 32
0.0
 13
-2.089105902777775
 23
3.690177694956461
 33
0.0
210
0.0
220
0.0
230
-1.0
  0
SOLID
  5
3F1
330
3DF
100
AcDbEntity
  8
LAYER_1
  6
Continuous
 62
     7
100
AcDbTrace
 10
2.089105902777775
 20
4.125645838843451
 30
0.0
 11
2.089105902777775
 21
3.687457953559026
 31
0.0
 12
3.158463541666666
 22
3.043839712027046
 32
0.0
 13
3.158463541666666
 23
3.043839712027046
 33
0.0
210
0.0
220
0.0
230
-1.0
  0
SOLID
  5
3F2
330
3DF
100
AcDbEntity
  8
LAYER_1
  6
Continuous
 62
     7
100
AcDbTrace
 10
3.158463541666666
 20
4.194068917300966
 30
0.0
 11
2.089105902777775
 21
4.125645838843451
 31
0.0
 12
3.158463541666666
 22
3.043839712027046
 32
0.0
 13
3.158463541666666
 23
3.043839712027046
 33
0.0
210
0.0
220
0.0
230
-1.0
  0
SOLID
  5
3F3
330
3DF
100
AcDbEntity
  8
LAYER_1
  6
Continuous
 62
     7
100
AcDbTrace
 10
2.089046374791198
 20
4.305995068326589
 30
0.0
 11
2.089105902777775
 21
4.125645838843451
 31
0.0
 12
3.158463541666666
 22
4.194068917300966
 32
0.0
 13
3.158463541666666
 23
4.194068917300966
 33
0.0
210
0.0
220
0.0
230
-1.0
  0
SOLID
  5
3F4
330
3DF
100
AcDbEntity
  8
LAYER_1
  6
Continuous
 62
     7
100
AcDbTrace
 10
-3.158463541666666
 20
4.34049251957072
 30
0.0
 11
-3.158463541666666
 21
3.165896066029866
 31
0.0
 12
-2.089105902777775
 22
3.987439643012153
 32
0.0
 13
-2.089105902777775
 23
3.987439643012153
 33
0.0
210
0.0
220
0.0
230
-1.0
  0
SOLID
  5
3F5
330
3DF
100
AcDbEntity
  8
LAYER_1
  6
Continuous
 62
     7
100
AcDbTrace
 10
-2.089105902777775
 20
4.452746889326306
 30
0.0
 11
-3.158463541666666
 21
4.34049251957072
 31
0.0
 12
-2.089105902777775
 22
3.987439643012153
 32
0.0
 13
-2.089105902777775
 23
3.987439643012153
 33
0.0
210
0.0
220
0.0
230
-1.0
  0
SOLID
  5
3F6
330
3DF
100
AcDbEntity
  8
LAYER_1
  6
Continuous
 62
     7
100
AcDbTrace
 10
3.158463541666666
 20
4.608237269199971
 30
0.0
 11
2.089046374791198
 21
4.305995068326589
 31
0.0
 12
3.158463541666666
 22
4.194068917300966
 32
0.0
 13
3.158463541666666
 23
4.194068917300966
 33
0.0
210
0.0
220
0.0
230
-1.0
  0
SOLID
  5
3F7
330
3DF
100
AcDbEntity
  8
LAYER_1
  6
Continuous
 62
     7
100
AcDbTrace
 10
-2.088871659835178
 20
4.700892676247486
 30
0.0
 11
-3.158463541666666
 21
4.34049251957072
 31
0.0
 12
-2.089105902777775
 22
4.452746889326306
 32
0.0
 13
-2.089105902777775
 23
4.452746889326306
 33
0.0
210
0.0
220
0.0
230
-1.0
  0
SOLID
  5
3F8
330
3DF
100
AcDbEntity
  8
LAYER_1
  6
Continuous
 62
     7
100
AcDbTrace
 10
-3.158463541666666
 20
4.722316708726186
 30
0.0
 11
-3.158463541666666
 21
4.34049251957072
 31
0.0
 12
-2.088871659835178
 22
4.700892676247486
 32
0.0
 13
-2.088871659835178
 23
4.700892676247486
 33
0.0
210
0.0
220
0.0
230
-1.0
  0
SOLID
  5
3F9
330
3DF
100
AcDbEntity
  8
LAYER_1
  6
Continuous
 62
     7
100
AcDbTrace
 10
2.080567179785834
 20
4.768560205565556
 30
0.0
 11
2.089046374791198
 21
4.305995068326589
 31
0.0
 12
3.158463541666666
 22
4.608237269199971
 32
0.0
 13
3.158463541666666
 23
4.608237269199971
 33
0.0
210
0.0
220
0.0
230
-1.0
  0
SOLID
  5
3FA
330
3DF
100
AcDbEntity
  8
LAYER_1
  6
Continuous
 62
     7
100
AcDbTrace
 10
3.158345452944437
 20
4.781977232338653
 30
0.0
 11
2.080567179785834
 21
4.768560205565556
 31
0.0
 12
3.158463541666666
 22
4.608237269199971
 32
0.0
 13
3.158463541666666
 23
4.608237269199971
 33
0.0
210
0.0
220
0.0
230
-1.0
  0
SOLID
  5
3FB
330
3DF
100
AcDbEntity
  8
LAYER_1
  6
Continuous
 62
     7
100
AcDbTrace
 10
-3.157942740122475
 20
4.888914187418087
 30
0.0
 11
-3.158463541666666
 21
4.722316708726186
 31
0.0
 12
-2.088871659835178
 22
4.700892676247486
 32
0.0
 13
-2.088871659835178
 23
4.700892676247486
 33
0.0
210
0.0
220
0.0
230
-1.0
  0
SOLID
  5
3FC
330
3DF
100
AcDbEntity
  8
LAYER_1
  6
Continuous
 62
     7
100
AcDbTrace
 10
-2.055241690741643
 20
5.267001936170789
 30
0.0
 11
-3.157942740122475
 21
4.888914187418087
 31
0.0
 12
-2.088871659835178
 22
4.700892676247486
 32
0.0
 13
-2.088871659835178
 23
4.700892676247486
 33
0.0
210
0.0
220
0.0
230
-1.0
  0
SOLID
  5
3FD
330
3DF
100
AcDbEntity
  8
LAYER_1
  6
Continuous
 62
     7
100
AcDbTrace
 10
3.141458765665689
 20
5.270238778326246
 30
0.0
 11
2.080567179785834
 21
4.768560205565556
 31
0.0
 12
3.158345452944437
 22
4.781977232338653
 32
0.0
 13
3.158345452944437
 23
4.781977232338653
 33
0.0
210
0.0
220
0.0
230
-1.0
  0
SOLID
  5
3FE
330
3DF
100
AcDbEntity
  8
LAYER_1
  6
Continuous
 62
     7
100
AcDbTrace
 10
2.018574217292997
 20
5.344643799132768
 30
0.0
 11
2.080567179785834
 21
4.768560205565556
 31
0.0
 12
3.141458765665689
 22
5.270238778326246
 32
0.0
 13
3.141458765665689
 23
5.270238778326246
 33
0.0
210
0.0
220
0.0
230
-1.0
  0
SOLID
  5
3FF
330
3DF
100
AcDbEntity
  8
LAYER_1
  6
Continuous
 62
     7
100
AcDbTrace
 10
-3.083468119303383
 20
5.69934796227349
 30
0.0
 11
-3.157942740122475
 21
4.888914187418087
 31
0.0
 12
-2.055241690741643
 22
5.267001936170789
 32
0.0
 13
-2.055241690741643
 23
5.267001936170789
 33
0.0
210
0.0
220
0.0
230
-1.0
  0
SOLID
  5
400
330
3DF
100
AcDbEntity
  8
LAYER_1
  6
Continuous
 62
     7
100
AcDbTrace
 10
1.83275311787923
 20
5.76471864912245
 30
0.0
 11
2.018574217292997
 21
5.344643799132768
 31
0.0
 12
3.141458765665689
 22
5.270238778326246
 32
0.0
 13
3.141458765665689
 23
5.270238778326246
 33
0.0
210
0.0
220
0.0
230
-1.0
  0
SOLID
  5
401
330
3DF
100
AcDbEntity
  8
LAYER_1
  6
Continuous
 62
     7
100
AcDbTrace
 10
-1.716649362776014
 20
5.966000371509124
 30
0.0
 11
-3.083468119303383
 21
5.69934796227349
 31
0.0
 12
-2.055241690741643
 22
5.267001936170789
 32
0.0
 13
-2.055241690741643
 23
5.267001936170789
 33
0.0
210
0.0
220
0.0
230
-1.0
  0
SOLID
  5
402
330
3DF
100
AcDbEntity
  8
LAYER_1
  6
Continuous
 62
     7
100
AcDbTrace
 10
3.016070831484262
 20
6.000594689779812
 30
0.0
 11
1.83275311787923
 21
5.76471864912245
 31
0.0
 12
3.141458765665689
 22
5.270238778326246
 32
0.0
 13
3.141458765665689
 23
5.270238778326246
 33
0.0
210
0.0
220
0.0
230
-1.0
  0
SOLID
  5
403
330
3DF
100
AcDbEntity
  8
LAYER_1
  6
Continuous
 62
     7
100
AcDbTrace
 10
-1.308095522721608
 20
6.197811140616733
 30
0.0
 11
-3.083468119303383
 21
5.69934796227349
 31
0.0
 12
-1.716649362776014
 22
5.966000371509124
 32
0.0
 13
-1.716649362776014
 23
5.966000371509124
 33
0.0
210
0.0
220
0.0
230
-1.0
  0
SOLID
  5
404
330
3DF
100
AcDbEntity
  8
LAYER_1
  6
Continuous
 62
     7
100
AcDbTrace
 10
1.017465215259127
 20
6.278872235616047
 30
0.0
 11
1.83275311787923
 21
5.76471864912245
 31
0.0
 12
3.016070831484262
 22
6.000594689779812
 32
0.0
 13
3.016070831484262
 23
6.000594689779812
 33
0.0
210
0.0
220
0.0
230
-1.0
  0
SOLID
  5
405
330
3DF
100
AcDbEntity
  8
LAYER_1
  6
Continuous
 62
     7
100
AcDbTrace
 10
-2.839579582214355
 20
6.375701707601544
 30
0.0
 11
-0.6568074544270833
 21
6.345219930013018
 31
0.0
 12
0.2601890703042347
 22
6.372864802678424
 32
0.0
 13
0.2601890703042347
 23
6.372864802678424
 33
0.0
210
0.0
220
0.0
230
-1.0
  0
SOLID
  5
406
330
3DF
100
AcDbEntity
  8
LAYER_1
  6
Continuous
 62
     7
100
AcDbTrace
 10
-2.839579582214355
 20
6.375701707601544
 30
0.0
 11
-1.308095522721608
 21
6.197811140616733
 31
0.0
 12
-0.6568074544270833
 22
6.345219930013018
 32
0.0
 13
-0.6568074544270833
 23
6.345219930013018
 33
0.0
210
0.0
220
0.0
230
-1.0
  0
SOLID
  5
407
330
3DF
100
AcDbEntity
  8
LAYER_1
  6
Continuous
 62
     7
100
AcDbTrace
 10
-2.839579582214355
 20
6.375701707601544
 30
0.0
 11
-3.083468119303383
 21
5.69934796227349
 31
0.0
 12
-1.308095522721608
 22
6.197811140616733
 32
0.0
 13
-1.308095522721608
 23
6.197811140616733
 33
0.0
210
0.0
220
0.0
230
-1.0
  0
SOLID
  5
408
330
3DF
100
AcDbEntity
  8
LAYER_1
  6
Continuous
 62
     7
100
AcDbTrace
 10
2.648950068155923
 20
6.673825518290199
 30
0.0
 11
-2.839579582214355
 21
6.375701707601544
 31
0.0
 12
0.2601890703042347
 22
6.372864802678424
 32
0.0
 13
0.2601890703042347
 23
6.372864802678424
 33
0.0
210
0.0
220
0.0
230
-1.0
  0
SOLID
  5
409
330
3DF
100
AcDbEntity
  8
LAYER_1
  6
Continuous
 62
     7
100
AcDbTrace
 10
2.648950068155923
 20
6.673825518290199
 30
0.0
 11
0.2601890703042347
 21
6.372864802678424
 31
0.0
 12
1.017465215259127
 22
6.278872235616047
 32
0.0
 13
1.017465215259127
 23
6.278872235616047
 33
0.0
210
0.0
220
0.0
230
-1.0
  0
SOLID
  5
40A
330
3DF
100
AcDbEntity
  8
LAYER_1
  6
Continuous
 62
     7
100
AcDbTrace
 10
2.648950068155923
 20
6.673825518290199
 30
0.0
 11
1.017465215259127
 21
6.278872235616047
 31
0.0
 12
3.016070831484262
 22
6.000594689779812
 32
0.0
 13
3.016070831484262
 23
6.000594689779812
 33
0.0
210
0.0
220
0.0
230
-1.0
  0
SOLID
  5
40B
330
3DF
100
AcDbEntity
  8
LAYER_1
  6
Continuous
 62
     7
100
AcDbTrace
 10
-2.410076432757905
 20
6.92769372993045
 30
0.0
 11
-2.839579582214355
 21
6.375701707601544
 31
0.0
 12
2.648950068155923
 22
6.673825518290199
 32
0.0
 13
2.648950068155923
 23
6.673825518290199
 33
0.0
210
0.0
220
0.0
230
-1.0
  0
SOLID
  5
40C
330
3DF
100
AcDbEntity
  8
LAYER_1
  6
Continuous
 62
     7
100
AcDbTrace
 10
2.054369062185287
 20
7.191113334231902
 30
0.0
 11
-2.410076432757905
 21
6.92769372993045
 31
0.0
 12
2.648950068155923
 22
6.673825518290199
 32
0.0
 13
2.648950068155923
 23
6.673825518290199
 33
0.0
210
0.0
220
0.0
230
-1.0
  0
SOLID
  5
40D
330
3DF
100
AcDbEntity
  8
LAYER_1
  6
Continuous
 62
     7
100
AcDbTrace
 10
-1.654189933008616
 20
7.400251278943485
 30
0.0
 11
-2.410076432757905
 21
6.92769372993045
 31
0.0
 12
2.054369062185287
 22
7.191113334231902
 32
0.0
 13
2.054369062185287
 23
7.191113334231902
 33
0.0
210
0.0
220
0.0
230
-1.0
  0
SOLID
  5
40E
330
3DF
100
AcDbEntity
  8
LAYER_1
  6
Continuous
 62
     7
100
AcDbTrace
 10
1.276664914025198
 20
7.531252590815227
 30
0.0
 11
-1.654189933008616
 21
7.400251278943485
 31
0.0
 12
2.054369062185287
 22
7.191113334231902
 32
0.0
 13
2.054369062185287
 23
7.191113334231902
 33
0.0
210
0.0
220
0.0
230
-1.0
  0
SOLID
  5
40F
330
3DF
100
AcDbEntity
  8
LAYER_1
  6
Continuous
 62
     7
100
AcDbTrace
 10
-0.7866444905598958
 20
7.640963406032985
 30
0.0
 11
-1.654189933008616
 21
7.400251278943485
 31
0.0
 12
1.276664914025198
 22
7.531252590815227
 32
0.0
 13
1.276664914025198
 23
7.531252590815227
 33
0.0
210
0.0
220
0.0
230
-1.0
  0
ENDBLK
  5
411
330
3DF
100
AcDbEntity
  8
0
100
AcDbBlockEnd
  0
BLOCK
  5
431
330
412
100
AcDbEntity
  8
0
100
AcDbBlockBegin
  2
*U9
 70
     1
 10
0.0
 20
0.0
 30
0.0
  3
*U9
  1

  0
SOLID
  5
413
330
412
100
AcDbEntity
  8
LAYER_1
  6
Continuous
 62
     7
100
AcDbTrace
 10
-2.729203332112692
 20
0.158475738838062
 30
0.0
 11
-2.729203332112692
 21
-0.0070455271303696
 31
0.0
 12
-2.526302378145548
 22
-0.0070455271303696
 32
0.0
 13
-2.526302378145548
 23
-0.0070455271303696
 33
0.0
210
0.0
220
0.0
230
-1.0
  0
SOLID
  5
414
330
412
100
AcDbEntity
  8
LAYER_1
  6
Continuous
 62
     7
100
AcDbTrace
 10
-2.729203332112692
 20
0.158475738838062
 30
0.0
 11
-2.526302378145548
 21
-0.0070455271303696
 31
0.0
 12
-2.079920279417833
 22
-0.0070455271303696
 32
0.0
 13
-2.079920279417833
 23
-0.0070455271303696
 33
0.0
210
0.0
220
0.0
230
-1.0
  0
SOLID
  5
415
330
412
100
AcDbEntity
  8
LAYER_1
  6
Continuous
 62
     7
100
AcDbTrace
 10
-2.729203332112692
 20
0.158475738838062
 30
0.0
 11
-2.079920279417833
 21
-0.0070455271303696
 31
0.0
 12
-1.633538180690118
 22
-0.0070455271303696
 32
0.0
 13
-1.633538180690118
 23
-0.0070455271303696
 33
0.0
210
0.0
220
0.0
230
-1.0
  0
SOLID
  5
416
330
412
100
AcDbEntity
  8
LAYER_1
  6
Continuous
 62
     7
100
AcDbTrace
 10
-2.729203332112692
 20
0.158475738838062
 30
0.0
 11
-1.633538180690118
 21
-0.0070455271303696
 31
0.0
 12
-1.430637226722974
 22
-0.0070455271303696
 32
0.0
 13
-1.430637226722974
 23
-0.0070455271303696
 33
0.0
210
0.0
220
0.0
230
-1.0
  0
SOLID
  5
417
330
412
100
AcDbEntity
  8
LAYER_1
  6
Continuous
 62
     7
100
AcDbTrace
 10
-1.430637226722974
 20
0.1584757388380622
 30
0.0
 11
-2.729203332112692
 21
0.158475738838062
 31
0.0
 12
-1.430637226722974
 22
-0.0070455271303696
 32
0.0
 13
-1.430637226722974
 23
-0.0070455271303696
 33
0.0
210
0.0
220
0.0
230
-1.0
  0
SOLID
  5
418
330
412
100
AcDbEntity
  8
LAYER_1
  6
Continuous
 62
     7
100
AcDbTrace
 10
-2.729203332112692
 20
0.5948499854821088
 30
0.0
 11
-2.729203332112692
 21
0.158475738838062
 31
0.0
 12
-1.430637226722974
 22
0.1584757388380622
 32
0.0
 13
-1.430637226722974
 23
0.1584757388380622
 33
0.0
210
0.0
220
0.0
230
-1.0
  0
SOLID
  5
419
330
412
100
AcDbEntity
  8
LAYER_1
  6
Continuous
 62
     7
100
AcDbTrace
 10
-1.430637226722974
 20
0.5948499854821093
 30
0.0
 11
-2.729203332112692
 21
0.5948499854821088
 31
0.0
 12
-1.430637226722974
 22
0.1584757388380622
 32
0.0
 13
-1.430637226722974
 23
0.1584757388380622
 33
0.0
210
0.0
220
0.0
230
-1.0
  0
SOLID
  5
41A
330
412
100
AcDbEntity
  8
LAYER_1
  6
Continuous
 62
     7
100
AcDbTrace
 10
-2.729203332112692
 20
1.919020113229561
 30
0.0
 11
-2.729203332112692
 21
0.5948499854821088
 31
0.0
 12
-1.430637226722974
 22
0.5948499854821093
 32
0.0
 13
-1.430637226722974
 23
0.5948499854821093
 33
0.0
210
0.0
220
0.0
230
-1.0
  0
SOLID
  5
41B
330
412
100
AcDbEntity
  8
LAYER_1
  6
Continuous
 62
     7
100
AcDbTrace
 10
-1.430637226722974
 20
1.919020113229561
 30
0.0
 11
-2.729203332112692
 21
1.919020113229561
 31
0.0
 12
-1.430637226722974
 22
0.5948499854821093
 32
0.0
 13
-1.430637226722974
 23
0.5948499854821093
 33
0.0
210
0.0
220
0.0
230
-1.0
  0
SOLID
  5
41C
330
412
100
AcDbEntity
  8
LAYER_1
  6
Continuous
 62
     7
100
AcDbTrace
 10
-2.729203332112692
 20
3.243190240977015
 30
0.0
 11
-2.729203332112692
 21
1.919020113229561
 31
0.0
 12
-1.430637226722974
 22
1.919020113229561
 32
0.0
 13
-1.430637226722974
 23
1.919020113229561
 33
0.0
210
0.0
220
0.0
230
-1.0
  0
SOLID
  5
41D
330
412
100
AcDbEntity
  8
LAYER_1
  6
Continuous
 62
     7
100
AcDbTrace
 10
-1.430637226722974
 20
3.243190240977015
 30
0.0
 11
-2.729203332112692
 21
3.243190240977015
 31
0.0
 12
-1.430637226722974
 22
1.919020113229561
 32
0.0
 13
-1.430637226722974
 23
1.919020113229561
 33
0.0
210
0.0
220
0.0
230
-1.0
  0
SOLID
  5
41E
330
412
100
AcDbEntity
  8
LAYER_1
  6
Continuous
 62
     7
100
AcDbTrace
 10
-1.430637226722974
 20
3.679564487621061
 30
0.0
 11
-2.729203332112692
 21
3.243190240977015
 31
0.0
 12
-1.430637226722974
 22
3.243190240977015
 32
0.0
 13
-1.430637226722974
 23
3.243190240977015
 33
0.0
210
0.0
220
0.0
230
-1.0
  0
SOLID
  5
41F
330
412
100
AcDbEntity
  8
LAYER_1
  6
Continuous
 62
     7
100
AcDbTrace
 10
-2.729203332112692
 20
3.679564487621061
 30
0.0
 11
-2.729203332112692
 21
3.243190240977015
 31
0.0
 12
-1.430637226722974
 22
3.679564487621061
 32
0.0
 13
-1.430637226722974
 23
3.679564487621061
 33
0.0
210
0.0
220
0.0
230
-1.0
  0
SOLID
  5
420
330
412
100
AcDbEntity
  8
LAYER_1
  6
Continuous
 62
     7
100
AcDbTrace
 10
-1.430637226722974
 20
3.845085753589493
 30
0.0
 11
-2.729203332112692
 21
3.679564487621061
 31
0.0
 12
-1.430637226722974
 22
3.679564487621061
 32
0.0
 13
-1.430637226722974
 23
3.679564487621061
 33
0.0
210
0.0
220
0.0
230
-1.0
  0
SOLID
  5
421
330
412
100
AcDbEntity
  8
LAYER_1
  6
Continuous
 62
     7
100
AcDbTrace
 10
2.729203332112692
 20
3.845085753589493
 30
0.0
 11
0.1760418789097775
 21
3.845085753589493
 31
0.0
 12
-0.0562905929074814
 22
3.845085753589493
 32
0.0
 13
-0.0562905929074814
 23
3.845085753589493
 33
0.0
  0
SOLID
  5
422
330
412
100
AcDbEntity
  8
LAYER_1
  6
Continuous
 62
     7
100
AcDbTrace
 10
2.729203332112692
 20
3.845085753589493
 30
0.0
 11
0.6871733169077468
 21
3.845085753589493
 31
0.0
 12
0.1760418789097775
 22
3.845085753589493
 32
0.0
 13
0.1760418789097775
 23
3.845085753589493
 33
0.0
  0
SOLID
  5
423
330
412
100
AcDbEntity
  8
LAYER_1
  6
Continuous
 62
     7
100
AcDbTrace
 10
2.729203332112692
 20
3.845085753589493
 30
0.0
 11
1.198304754905715
 21
3.845085753589493
 31
0.0
 12
0.6871733169077468
 22
3.845085753589493
 32
0.0
 13
0.6871733169077468
 23
3.845085753589493
 33
0.0
  0
SOLID
  5
424
330
412
100
AcDbEntity
  8
LAYER_1
  6
Continuous
 62
     7
100
AcDbTrace
 10
2.729203332112692
 20
3.845085753589493
 30
0.0
 11
1.430637226722974
 21
3.845085753589493
 31
0.0
 12
1.198304754905715
 22
3.845085753589493
 32
0.0
 13
1.198304754905715
 23
3.845085753589493
 33
0.0
  0
SOLID
  5
425
330
412
100
AcDbEntity
  8
LAYER_1
  6
Continuous
 62
     7
100
AcDbTrace
 10
-2.729203332112692
 20
3.845085753589493
 30
0.0
 11
-2.729203332112692
 21
3.679564487621061
 31
0.0
 12
-1.430637226722974
 22
3.845085753589493
 32
0.0
 13
-1.430637226722974
 23
3.845085753589493
 33
0.0
210
0.0
220
0.0
230
-1.0
  0
SOLID
  5
426
330
412
100
AcDbEntity
  8
LAYER_1
  6
Continuous
 62
     7
100
AcDbTrace
 10
-4.21624300549273
 20
3.845085753589493
 30
0.0
 11
-4.03265757743647
 21
4.957527219729641
 31
0.0
 12
-4.21624300549273
 22
4.957527219729641
 32
0.0
 13
-4.21624300549273
 23
4.957527219729641
 33
0.0
210
0.0
220
0.0
230
-1.0
  0
SOLID
  5
427
330
412
100
AcDbEntity
  8
LAYER_1
  6
Continuous
 62
     7
100
AcDbTrace
 10
-4.21624300549273
 20
3.845085753589493
 30
0.0
 11
-3.548659630742696
 21
4.957527219729641
 31
0.0
 12
-4.03265757743647
 22
4.957527219729641
 32
0.0
 13
-4.03265757743647
 23
4.957527219729641
 33
0.0
210
0.0
220
0.0
230
-1.0
  0
SOLID
  5
428
330
412
100
AcDbEntity
  8
LAYER_1
  6
Continuous
 62
     7
100
AcDbTrace
 10
-4.21624300549273
 20
3.845085753589493
 30
0.0
 11
-2.079976206292622
 21
4.957527219729641
 31
0.0
 12
-3.548659630742696
 22
4.957527219729641
 32
0.0
 13
-3.548659630742696
 23
4.957527219729641
 33
0.0
210
0.0
220
0.0
230
-1.0
  0
SOLID
  5
429
330
412
100
AcDbEntity
  8
LAYER_1
  6
Continuous
 62
     7
100
AcDbTrace
 10
-4.21624300549273
 20
3.845085753589493
 30
0.0
 11
-0.6112927818425515
 21
4.957527219729641
 31
0.0
 12
-2.079976206292622
 22
4.957527219729641
 32
0.0
 13
-2.079976206292622
 23
4.957527219729641
 33
0.0
210
0.0
220
0.0
230
-1.0
  0
SOLID
  5
42A
330
412
100
AcDbEntity
  8
LAYER_1
  6
Continuous
 62
     7
100
AcDbTrace
 10
-4.21624300549273
 20
3.845085753589493
 30
0.0
 11
-0.1272948351487777
 21
4.957527219729641
 31
0.0
 12
-0.6112927818425515
 22
4.957527219729641
 32
0.0
 13
-0.6112927818425515
 23
4.957527219729641
 33
0.0
210
0.0
220
0.0
230
-1.0
  0
SOLID
  5
42B
330
412
100
AcDbEntity
  8
LAYER_1
  6
Continuous
 62
     7
100
AcDbTrace
 10
-4.21624300549273
 20
3.845085753589493
 30
0.0
 11
0.0562905929074814
 21
4.957527219729641
 31
0.0
 12
-0.1272948351487777
 22
4.957527219729641
 32
0.0
 13
-0.1272948351487777
 23
4.957527219729641
 33
0.0
210
0.0
220
0.0
230
-1.0
  0
SOLID
  5
42C
330
412
100
AcDbEntity
  8
LAYER_1
  6
Continuous
 62
     7
100
AcDbTrace
 10
0.0562905929074814
 20
4.957527219729641
 30
0.0
 11
-4.21624300549273
 21
3.845085753589493
 31
0.0
 12
-3.983893056527098
 22
3.845085753589493
 32
0.0
 13
-3.983893056527098
 23
3.845085753589493
 33
0.0
210
0.0
220
0.0
230
-1.0
  0
SOLID
  5
42D
330
412
100
AcDbEntity
  8
LAYER_1
  6
Continuous
 62
     7
100
AcDbTrace
 10
0.0562905929074814
 20
4.957527219729641
 30
0.0
 11
-3.983893056527098
 21
3.845085753589493
 31
0.0
 12
-3.472723168802711
 22
3.845085753589493
 32
0.0
 13
-3.472723168802711
 23
3.845085753589493
 33
0.0
210
0.0
220
0.0
230
-1.0
  0
SOLID
  5
42E
330
412
100
AcDbEntity
  8
LAYER_1
  6
Continuous
 62
     7
100
AcDbTrace
 10
0.0562905929074814
 20
4.957527219729641
 30
0.0
 11
-3.472723168802711
 21
3.845085753589493
 31
0.0
 12
-2.961553281078323
 22
3.845085753589493
 32
0.0
 13
-2.961553281078323
 23
3.845085753589493
 33
0.0
210
0.0
220
0.0
230
-1.0
  0
SOLID
  5
42F
330
412
100
AcDbEntity
  8
LAYER_1
  6
Continuous
 62
     7
100
AcDbTrace
 10
0.0562905929074814
 20
4.957527219729641
 30
0.0
 11
-2.961553281078323
 21
3.845085753589493
 31
0.0
 12
-2.729203332112692
 22
3.845085753589493
 32
0.0
 13
-2.729203332112692
 23
3.845085753589493
 33
0.0
210
0.0
220
0.0
230
-1.0
  0
SOLID
  5
430
330
412
100
AcDbEntity
  8
LAYER_1
  6
Continuous
 62
     7
100
AcDbTrace
 10
0.0562905929074814
 20
4.957527219729641
 30
0.0
 11
-2.729203332112692
 21
3.845085753589493
 31
0.0
 12
0.0562905929074814
 22
3.845085753589493
 32
0.0
 13
0.0562905929074814
 23
3.845085753589493
 33
0.0
210
0.0
220
0.0
230
-1.0
  0
ENDBLK
  5
432
330
412
100
AcDbEntity
  8
0
100
AcDbBlockEnd
  0
BLOCK
  5
460
330
433
100
AcDbEntity
  8
0
100
AcDbBlockBegin
  2
*U10
 70
     1
 10
0.0
 20
0.0
 30
0.0
  3
*U10
  1

  0
SOLID
  5
434
330
433
100
AcDbEntity
  8
LAYER_1
  6
Continuous
 62
     7
100
AcDbTrace
 10
-5.374712289572499
 20
0.0159134926702515
 30
0.0
 11
-5.318916930339425
 21
-0.0070455271303696
 31
0.0
 12
-4.725457200314918
 22
-0.0070455271303696
 32
0.0
 13
-4.725457200314918
 23
-0.0070455271303696
 33
0.0
210
0.0
220
0.0
230
-1.0
  0
SOLID
  5
435
330
433
100
AcDbEntity
  8
LAYER_1
  6
Continuous
 62
     7
100
AcDbTrace
 10
-5.374712289572499
 20
0.0159134926702515
 30
0.0
 11
-4.725457200314918
 21
-0.0070455271303696
 31
0.0
 12
-4.131997470290412
 22
-0.0070455271303696
 32
0.0
 13
-4.131997470290412
 23
-0.0070455271303696
 33
0.0
210
0.0
220
0.0
230
-1.0
  0
SOLID
  5
436
330
433
100
AcDbEntity
  8
LAYER_1
  6
Continuous
 62
     7
100
AcDbTrace
 10
-4.076202111057341
 20
0.0487089519603435
 30
0.0
 11
-5.374712289572499
 21
0.0159134926702515
 31
0.0
 12
-4.131997470290412
 22
-0.0070455271303696
 32
0.0
 13
-4.131997470290412
 23
-0.0070455271303696
 33
0.0
210
0.0
220
0.0
230
-1.0
  0
SOLID
  5
437
330
433
100
AcDbEntity
  8
LAYER_1
  6
Continuous
 62
     7
100
AcDbTrace
 10
-7.085179827676682
 20
0.0807976790633118
 30
0.0
 11
-8.383690006191841
 21
-0.0070455271303696
 31
0.0
 12
-7.972833270021027
 22
-0.0070455271303696
 32
0.0
 13
-7.972833270021027
 23
-0.0070455271303696
 33
0.0
210
0.0
220
0.0
230
-1.0
  0
SOLID
  5
438
330
433
100
AcDbEntity
  8
LAYER_1
  6
Continuous
 62
     7
100
AcDbTrace
 10
-7.085179827676682
 20
0.0807976790633118
 30
0.0
 11
-7.972833270021027
 21
-0.0070455271303696
 31
0.0
 12
-7.288072043069676
 22
-0.0070455271303696
 32
0.0
 13
-7.288072043069676
 23
-0.0070455271303696
 33
0.0
210
0.0
220
0.0
230
-1.0
  0
SOLID
  5
439
330
433
100
AcDbEntity
  8
LAYER_1
  6
Continuous
 62
     7
100
AcDbTrace
 10
-8.383690006191841
 20
0.1156749295638617
 30
0.0
 11
-8.383690006191841
 21
-0.0070455271303696
 31
0.0
 12
-7.085179827676682
 22
0.0807976790633118
 32
0.0
 13
-7.085179827676682
 23
0.0807976790633118
 33
0.0
210
0.0
220
0.0
230
-1.0
  0
SOLID
  5
43A
330
433
100
AcDbEntity
  8
LAYER_1
  6
Continuous
 62
     7
100
AcDbTrace
 10
-5.374712289572499
 20
0.3123843135739261
 30
0.0
 11
-5.374712289572499
 21
0.0159134926702515
 31
0.0
 12
-4.076202111057341
 22
0.0487089519603435
 32
0.0
 13
-4.076202111057341
 23
0.0487089519603435
 33
0.0
210
0.0
220
0.0
230
-1.0
  0
SOLID
  5
43B
330
433
100
AcDbEntity
  8
LAYER_1
  6
Continuous
 62
     7
100
AcDbTrace
 10
-8.383690006191841
 20
0.4511108445280981
 30
0.0
 11
-8.383690006191841
 21
0.1156749295638617
 31
0.0
 12
-7.085179827676682
 22
0.0807976790633118
 32
0.0
 13
-7.085179827676682
 23
0.0807976790633118
 33
0.0
210
0.0
220
0.0
230
-1.0
  0
SOLID
  5
43C
330
433
100
AcDbEntity
  8
LAYER_1
  6
Continuous
 62
     7
100
AcDbTrace
 10
-4.076202111057341
 20
0.7686689645665074
 30
0.0
 11
-5.374712289572499
 21
0.3123843135739261
 31
0.0
 12
-4.076202111057341
 22
0.0487089519603435
 32
0.0
 13
-4.076202111057341
 23
0.0487089519603435
 33
0.0
210
0.0
220
0.0
230
-1.0
  0
SOLID
  5
43D
330
433
100
AcDbEntity
  8
LAYER_1
  6
Continuous
 62
     7
100
AcDbTrace
 10
-7.085179827676682
 20
1.015129963123375
 30
0.0
 11
-8.383690006191841
 21
0.4511108445280981
 31
0.0
 12
-7.085179827676682
 22
0.0807976790633118
 32
0.0
 13
-7.085179827676682
 23
0.0807976790633118
 33
0.0
210
0.0
220
0.0
230
-1.0
  0
SOLID
  5
43E
330
433
100
AcDbEntity
  8
LAYER_1
  6
Continuous
 62
     7
100
AcDbTrace
 10
-5.374712289572499
 20
1.390460025950924
 30
0.0
 11
-5.374712289572499
 21
0.3123843135739261
 31
0.0
 12
-4.076202111057341
 22
0.7686689645665074
 32
0.0
 13
-4.076202111057341
 23
0.7686689645665074
 33
0.0
210
0.0
220
0.0
230
-1.0
  0
SOLID
  5
43F
330
433
100
AcDbEntity
  8
LAYER_1
  6
Continuous
 62
     7
100
AcDbTrace
 10
-8.383690006191841
 20
1.563776318555806
 30
0.0
 11
-8.383690006191841
 21
0.4511108445280981
 31
0.0
 12
-7.085179827676682
 22
1.015129963123375
 32
0.0
 13
-7.085179827676682
 23
1.015129963123375
 33
0.0
210
0.0
220
0.0
230
-1.0
  0
SOLID
  5
440
330
433
100
AcDbEntity
  8
LAYER_1
  6
Continuous
 62
     7
100
AcDbTrace
 10
-5.374712289572499
 20
1.848642203711148
 30
0.0
 11
-5.374712289572499
 21
1.390460025950924
 31
0.0
 12
-4.076202111057341
 22
0.7686689645665074
 32
0.0
 13
-4.076202111057341
 23
0.7686689645665074
 33
0.0
210
0.0
220
0.0
230
-1.0
  0
SOLID
  5
441
330
433
100
AcDbEntity
  8
LAYER_1
  6
Continuous
 62
     7
100
AcDbTrace
 10
-7.085179827676682
 20
1.94946224718344
 30
0.0
 11
-8.383690006191841
 21
1.563776318555806
 31
0.0
 12
-7.085179827676682
 22
1.015129963123375
 32
0.0
 13
-7.085179827676682
 23
1.015129963123375
 33
0.0
210
0.0
220
0.0
230
-1.0
  0
SOLID
  5
442
330
433
100
AcDbEntity
  8
LAYER_1
  6
Continuous
 62
     7
100
AcDbTrace
 10
-5.374712289572499
 20
2.03730545337712
 30
0.0
 11
-5.374712289572499
 21
1.848642203711148
 31
0.0
 12
-4.076202111057341
 22
0.7686689645665074
 32
0.0
 13
-4.076202111057341
 23
0.7686689645665074
 33
0.0
210
0.0
220
0.0
230
-1.0
  0
SOLID
  5
443
330
433
100
AcDbEntity
  8
LAYER_1
  6
Continuous
 62
     7
100
AcDbTrace
 10
-7.065970475442114
 20
2.03730545337712
 30
0.0
 11
-8.383690006191841
 21
1.563776318555806
 31
0.0
 12
-7.085179827676682
 22
1.94946224718344
 32
0.0
 13
-7.085179827676682
 23
1.94946224718344
 33
0.0
210
0.0
220
0.0
230
-1.0
  0
SOLID
  5
444
330
433
100
AcDbEntity
  8
LAYER_1
  6
Continuous
 62
     7
100
AcDbTrace
 10
-5.374712289572499
 20
2.03730545337712
 30
0.0
 11
-6.927329063662183
 21
3.149746919517271
 31
0.0
 12
-7.085179827676682
 22
3.149746919517271
 32
0.0
 13
-7.085179827676682
 23
3.149746919517271
 33
0.0
210
0.0
220
0.0
230
-1.0
  0
SOLID
  5
445
330
433
100
AcDbEntity
  8
LAYER_1
  6
Continuous
 62
     7
100
AcDbTrace
 10
-5.374712289572499
 20
2.03730545337712
 30
0.0
 11
-6.543977208198406
 21
3.149746919517271
 31
0.0
 12
-6.927329063662183
 22
3.149746919517271
 32
0.0
 13
-6.927329063662183
 23
3.149746919517271
 33
0.0
210
0.0
220
0.0
230
-1.0
  0
SOLID
  5
446
330
433
100
AcDbEntity
  8
LAYER_1
  6
Continuous
 62
     7
100
AcDbTrace
 10
-5.374712289572499
 20
2.03730545337712
 30
0.0
 11
-5.641972842401276
 21
3.149746919517271
 31
0.0
 12
-6.543977208198406
 22
3.149746919517271
 32
0.0
 13
-6.543977208198406
 23
3.149746919517271
 33
0.0
210
0.0
220
0.0
230
-1.0
  0
SOLID
  5
447
330
433
100
AcDbEntity
  8
LAYER_1
  6
Continuous
 62
     7
100
AcDbTrace
 10
-5.374712289572499
 20
2.03730545337712
 30
0.0
 11
-5.393921641807068
 21
3.149746919517271
 31
0.0
 12
-5.641972842401276
 22
3.149746919517271
 32
0.0
 13
-5.641972842401276
 23
3.149746919517271
 33
0.0
210
0.0
220
0.0
230
-1.0
  0
SOLID
  5
448
330
433
100
AcDbEntity
  8
LAYER_1
  6
Continuous
 62
     7
100
AcDbTrace
 10
-7.085179827676682
 20
3.149746919517271
 30
0.0
 11
-5.532563053586995
 21
2.03730545337712
 31
0.0
 12
-5.374712289572499
 22
2.03730545337712
 32
0.0
 13
-5.374712289572499
 23
2.03730545337712
 33
0.0
210
0.0
220
0.0
230
-1.0
  0
SOLID
  5
449
330
433
100
AcDbEntity
  8
LAYER_1
  6
Continuous
 62
     7
100
AcDbTrace
 10
-7.085179827676682
 20
3.149746919517271
 30
0.0
 11
-5.915914909050776
 21
2.03730545337712
 31
0.0
 12
-5.532563053586995
 22
2.03730545337712
 32
0.0
 13
-5.532563053586995
 23
2.03730545337712
 33
0.0
210
0.0
220
0.0
230
-1.0
  0
SOLID
  5
44A
330
433
100
AcDbEntity
  8
LAYER_1
  6
Continuous
 62
     7
100
AcDbTrace
 10
-7.085179827676682
 20
3.149746919517271
 30
0.0
 11
-6.817919274847902
 21
2.03730545337712
 31
0.0
 12
-5.915914909050776
 22
2.03730545337712
 32
0.0
 13
-5.915914909050776
 23
2.03730545337712
 33
0.0
210
0.0
220
0.0
230
-1.0
  0
SOLID
  5
44B
330
433
100
AcDbEntity
  8
LAYER_1
  6
Continuous
 62
     7
100
AcDbTrace
 10
-7.085179827676682
 20
3.149746919517271
 30
0.0
 11
-7.065970475442114
 21
2.03730545337712
 31
0.0
 12
-6.817919274847902
 22
2.03730545337712
 32
0.0
 13
-6.817919274847902
 23
2.03730545337712
 33
0.0
210
0.0
220
0.0
230
-1.0
  0
SOLID
  5
44C
330
433
100
AcDbEntity
  8
LAYER_1
  6
Continuous
 62
     7
100
AcDbTrace
 10
-7.085179827676682
 20
3.149746919517271
 30
0.0
 11
-8.383690006191841
 21
1.563776318555806
 31
0.0
 12
-7.065970475442114
 22
2.03730545337712
 32
0.0
 13
-7.065970475442114
 23
2.03730545337712
 33
0.0
210
0.0
220
0.0
230
-1.0
  0
SOLID
  5
44D
330
433
100
AcDbEntity
  8
LAYER_1
  6
Continuous
 62
     7
100
AcDbTrace
 10
-5.393921641807068
 20
3.149746919517271
 30
0.0
 11
-5.374712289572499
 21
2.03730545337712
 31
0.0
 12
-4.076202111057341
 22
0.7686689645665074
 32
0.0
 13
-4.076202111057341
 23
0.7686689645665074
 33
0.0
210
0.0
220
0.0
230
-1.0
  0
SOLID
  5
44E
330
433
100
AcDbEntity
  8
LAYER_1
  6
Continuous
 62
     7
100
AcDbTrace
 10
-5.374712289572499
 20
3.227424979292021
 30
0.0
 11
-5.393921641807068
 21
3.149746919517271
 31
0.0
 12
-4.076202111057341
 22
0.7686689645665074
 32
0.0
 13
-4.076202111057341
 23
0.7686689645665074
 33
0.0
210
0.0
220
0.0
230
-1.0
  0
SOLID
  5
44F
330
433
100
AcDbEntity
  8
LAYER_1
  6
Continuous
 62
     7
100
AcDbTrace
 10
-7.085179827676682
 20
3.31657820698804
 30
0.0
 11
-8.383690006191841
 21
1.563776318555806
 31
0.0
 12
-7.085179827676682
 22
3.149746919517271
 32
0.0
 13
-7.085179827676682
 23
3.149746919517271
 33
0.0
210
0.0
220
0.0
230
-1.0
  0
SOLID
  5
450
330
433
100
AcDbEntity
  8
LAYER_1
  6
Continuous
 62
     7
100
AcDbTrace
 10
-4.076202111057341
 20
3.386705374043466
 30
0.0
 11
-5.374712289572499
 21
3.227424979292021
 31
0.0
 12
-4.076202111057341
 22
0.7686689645665074
 32
0.0
 13
-4.076202111057341
 23
0.7686689645665074
 33
0.0
210
0.0
220
0.0
230
-1.0
  0
SOLID
  5
451
330
433
100
AcDbEntity
  8
LAYER_1
  6
Continuous
 62
     7
100
AcDbTrace
 10
-7.085179827676682
 20
3.721739905131341
 30
0.0
 11
-8.383690006191841
 21
1.563776318555806
 31
0.0
 12
-7.085179827676682
 22
3.31657820698804
 32
0.0
 13
-7.085179827676682
 23
3.31657820698804
 33
0.0
210
0.0
220
0.0
230
-1.0
  0
SOLID
  5
452
330
433
100
AcDbEntity
  8
LAYER_1
  6
Continuous
 62
     7
100
AcDbTrace
 10
-5.374712289572499
 20
4.053637069623454
 30
0.0
 11
-5.374712289572499
 21
3.227424979292021
 31
0.0
 12
-4.076202111057341
 22
3.386705374043466
 32
0.0
 13
-4.076202111057341
 23
3.386705374043466
 33
0.0
210
0.0
220
0.0
230
-1.0
  0
SOLID
  5
453
330
433
100
AcDbEntity
  8
LAYER_1
  6
Continuous
 62
     7
100
AcDbTrace
 10
-8.383690006191841
 20
4.181812728032765
 30
0.0
 11
-8.383690006191841
 21
1.563776318555806
 31
0.0
 12
-7.085179827676682
 22
3.721739905131341
 32
0.0
 13
-7.085179827676682
 23
3.721739905131341
 33
0.0
210
0.0
220
0.0
230
-1.0
  0
SOLID
  5
454
330
433
100
AcDbEntity
  8
LAYER_1
  6
Continuous
 62
     7
100
AcDbTrace
 10
-4.076202111057341
 20
4.499370848071174
 30
0.0
 11
-5.374712289572499
 21
4.053637069623454
 31
0.0
 12
-4.076202111057341
 22
3.386705374043466
 32
0.0
 13
-4.076202111057341
 23
3.386705374043466
 33
0.0
210
0.0
220
0.0
230
-1.0
  0
SOLID
  5
455
330
433
100
AcDbEntity
  8
LAYER_1
  6
Continuous
 62
     7
100
AcDbTrace
 10
-7.085179827676682
 20
4.675061547821456
 30
0.0
 11
-8.383690006191841
 21
4.181812728032765
 31
0.0
 12
-7.085179827676682
 22
3.721739905131341
 32
0.0
 13
-7.085179827676682
 23
3.721739905131341
 33
0.0
210
0.0
220
0.0
230
-1.0
  0
SOLID
  5
456
330
433
100
AcDbEntity
  8
LAYER_1
  6
Continuous
 62
     7
100
AcDbTrace
 10
-4.076202111057341
 20
4.834806763035411
 30
0.0
 11
-5.374712289572499
 21
4.053637069623454
 31
0.0
 12
-4.076202111057341
 22
4.499370848071174
 32
0.0
 13
-4.076202111057341
 23
4.499370848071174
 33
0.0
210
0.0
220
0.0
230
-1.0
  0
SOLID
  5
457
330
433
100
AcDbEntity
  8
LAYER_1
  6
Continuous
 62
     7
100
AcDbTrace
 10
-5.374712289572499
 20
4.879849159954892
 30
0.0
 11
-5.374712289572499
 21
4.053637069623454
 31
0.0
 12
-4.076202111057341
 22
4.834806763035411
 32
0.0
 13
-4.076202111057341
 23
4.834806763035411
 33
0.0
210
0.0
220
0.0
230
-1.0
  0
SOLID
  5
458
330
433
100
AcDbEntity
  8
LAYER_1
  6
Continuous
 62
     7
100
AcDbTrace
 10
-8.383690006191841
 20
4.901772740638928
 30
0.0
 11
-8.383690006191841
 21
4.181812728032765
 31
0.0
 12
-7.085179827676682
 22
4.675061547821456
 32
0.0
 13
-7.085179827676682
 23
4.675061547821456
 33
0.0
210
0.0
220
0.0
230
-1.0
  0
SOLID
  5
459
330
433
100
AcDbEntity
  8
LAYER_1
  6
Continuous
 62
     7
100
AcDbTrace
 10
-7.085179827676682
 20
4.937224999561241
 30
0.0
 11
-8.383690006191841
 21
4.901772740638928
 31
0.0
 12
-7.085179827676682
 22
4.675061547821456
 32
0.0
 13
-7.085179827676682
 23
4.675061547821456
 33
0.0
210
0.0
220
0.0
230
-1.0
  0
SOLID
  5
45A
330
433
100
AcDbEntity
  8
LAYER_1
  6
Continuous
 62
     7
100
AcDbTrace
 10
-5.374712289572499
 20
4.879849159954892
 30
0.0
 11
-4.487058847228153
 21
4.957527219729641
 31
0.0
 12
-5.171820074179505
 22
4.957527219729641
 32
0.0
 13
-5.171820074179505
 23
4.957527219729641
 33
0.0
210
0.0
220
0.0
230
-1.0
  0
SOLID
  5
45B
330
433
100
AcDbEntity
  8
LAYER_1
  6
Continuous
 62
     7
100
AcDbTrace
 10
-5.374712289572499
 20
4.879849159954892
 30
0.0
 11
-4.076202111057341
 21
4.957527219729641
 31
0.0
 12
-4.487058847228153
 22
4.957527219729641
 32
0.0
 13
-4.487058847228153
 23
4.957527219729641
 33
0.0
210
0.0
220
0.0
230
-1.0
  0
SOLID
  5
45C
330
433
100
AcDbEntity
  8
LAYER_1
  6
Continuous
 62
     7
100
AcDbTrace
 10
-4.076202111057341
 20
4.957527219729641
 30
0.0
 11
-5.374712289572499
 21
4.879849159954892
 31
0.0
 12
-4.076202111057341
 22
4.834806763035411
 32
0.0
 13
-4.076202111057341
 23
4.834806763035411
 33
0.0
210
0.0
220
0.0
230
-1.0
  0
SOLID
  5
45D
330
433
100
AcDbEntity
  8
LAYER_1
  6
Continuous
 62
     7
100
AcDbTrace
 10
-7.085179827676682
 20
4.937224999561241
 30
0.0
 11
-7.734434916934262
 21
4.957527219729641
 31
0.0
 12
-8.327894646958768
 22
4.957527219729641
 32
0.0
 13
-8.327894646958768
 23
4.957527219729641
 33
0.0
210
0.0
220
0.0
230
-1.0
  0
SOLID
  5
45E
330
433
100
AcDbEntity
  8
LAYER_1
  6
Continuous
 62
     7
100
AcDbTrace
 10
-7.085179827676682
 20
4.937224999561241
 30
0.0
 11
-7.140975186909755
 21
4.957527219729641
 31
0.0
 12
-7.734434916934262
 22
4.957527219729641
 32
0.0
 13
-7.734434916934262
 23
4.957527219729641
 33
0.0
210
0.0
220
0.0
230
-1.0
  0
SOLID
  5
45F
330
433
100
AcDbEntity
  8
LAYER_1
  6
Continuous
 62
     7
100
AcDbTrace
 10
-8.327894646958768
 20
4.957527219729641
 30
0.0
 11
-8.383690006191841
 21
4.901772740638928
 31
0.0
 12
-7.085179827676682
 22
4.937224999561241
 32
0.0
 13
-7.085179827676682
 23
4.937224999561241
 33
0.0
210
0.0
220
0.0
230
-1.0
  0
ENDBLK
  5
461
330
433
100
AcDbEntity
  8
0
100
AcDbBlockEnd
  0
BLOCK
  5
47F
330
462
100
AcDbEntity
  8
0
100
AcDbBlockBegin
  2
*U11
 70
     1
 10
0.0
 20
0.0
 30
0.0
  3
*U11
  1

  0
SOLID
  5
463
330
462
100
AcDbEntity
  8
LAYER_1
  6
Continuous
 62
     7
100
AcDbTrace
 10
-9.787216873814736
 20
0.0905695896438417
 30
0.0
 11
-11.88053183318799
 21
0.0905695896438416
 31
0.0
 12
-10.83384639006391
 22
-0.1111813679607202
 32
0.0
 13
-10.83384639006391
 23
-0.1111813679607202
 33
0.0
210
0.0
220
0.0
230
-1.0
  0
SOLID
  5
464
330
462
100
AcDbEntity
  8
LAYER_1
  6
Continuous
 62
     7
100
AcDbTrace
 10
-12.65163760086059
 20
0.6423633610324803
 30
0.0
 11
-11.88053183318799
 21
0.0905695896438416
 31
0.0
 12
-9.787216873814736
 22
0.0905695896438417
 32
0.0
 13
-9.787216873814736
 23
0.0905695896438417
 33
0.0
210
0.0
220
0.0
230
-1.0
  0
SOLID
  5
465
330
462
100
AcDbEntity
  8
LAYER_1
  6
Continuous
 62
     7
100
AcDbTrace
 10
-9.01612508786092
 20
0.6423633610324804
 30
0.0
 11
-12.65163760086059
 21
0.6423633610324803
 31
0.0
 12
-9.787216873814736
 22
0.0905695896438417
 32
0.0
 13
-9.787216873814736
 23
0.0905695896438417
 33
0.0
210
0.0
220
0.0
230
-1.0
  0
SOLID
  5
466
330
462
100
AcDbEntity
  8
LAYER_1
  6
Continuous
 62
     7
100
AcDbTrace
 10
-10.83384639006391
 20
1.001204171304405
 30
0.0
 11
-12.65163760086059
 21
0.6423633610324803
 31
0.0
 12
-9.01612508786092
 22
0.6423633610324804
 32
0.0
 13
-9.01612508786092
 23
0.6423633610324804
 33
0.0
210
0.0
220
0.0
230
-1.0
  0
SOLID
  5
467
330
462
100
AcDbEntity
  8
LAYER_1
  6
Continuous
 62
     7
100
AcDbTrace
 10
-11.36836749572148
 20
1.1278942721023
 30
0.0
 11
-12.65163760086059
 21
0.6423633610324803
 31
0.0
 12
-10.83384639006391
 22
1.001204171304405
 32
0.0
 13
-10.83384639006391
 23
1.001204171304405
 33
0.0
210
0.0
220
0.0
230
-1.0
  0
SOLID
  5
468
330
462
100
AcDbEntity
  8
LAYER_1
  6
Continuous
 62
     7
100
AcDbTrace
 10
-10.29932528440633
 20
1.1278942721023
 30
0.0
 11
-10.83384639006391
 21
1.001204171304405
 31
0.0
 12
-9.01612508786092
 22
0.6423633610324804
 32
0.0
 13
-9.01612508786092
 23
0.6423633610324804
 33
0.0
210
0.0
220
0.0
230
-1.0
  0
SOLID
  5
469
330
462
100
AcDbEntity
  8
LAYER_1
  6
Continuous
 62
     7
100
AcDbTrace
 10
-11.72747395864875
 20
1.461887820541071
 30
0.0
 11
-12.65163760086059
 21
0.6423633610324803
 31
0.0
 12
-11.36836749572148
 22
1.1278942721023
 32
0.0
 13
-11.36836749572148
 23
1.1278942721023
 33
0.0
210
0.0
220
0.0
230
-1.0
  0
SOLID
  5
46A
330
462
100
AcDbEntity
  8
LAYER_1
  6
Continuous
 62
     7
100
AcDbTrace
 10
-9.94021882147906
 20
1.461887820541071
 30
0.0
 11
-10.29932528440633
 21
1.1278942721023
 31
0.0
 12
-9.01612508786092
 22
0.6423633610324804
 32
0.0
 13
-9.01612508786092
 23
0.6423633610324804
 33
0.0
210
0.0
220
0.0
230
-1.0
  0
SOLID
  5
46B
330
462
100
AcDbEntity
  8
LAYER_1
  6
Continuous
 62
     7
100
AcDbTrace
 10
-8.539551215329101
 20
1.464011294067625
 30
0.0
 11
-9.94021882147906
 21
1.461887820541071
 31
0.0
 12
-9.01612508786092
 22
0.6423633610324804
 32
0.0
 13
-9.01612508786092
 23
0.6423633610324804
 33
0.0
210
0.0
220
0.0
230
-1.0
  0
SOLID
  5
46C
330
462
100
AcDbEntity
  8
LAYER_1
  6
Continuous
 62
     7
100
AcDbTrace
 10
-13.12820448253309
 20
1.464011294067625
 30
0.0
 11
-12.65163760086059
 21
0.6423633610324803
 31
0.0
 12
-11.72747395864875
 22
1.461887820541071
 32
0.0
 13
-11.72747395864875
 23
1.461887820541071
 33
0.0
210
0.0
220
0.0
230
-1.0
  0
SOLID
  5
46D
330
462
100
AcDbEntity
  8
LAYER_1
  6
Continuous
 62
     7
100
AcDbTrace
 10
-11.99276308914176
 20
2.475324736611705
 30
0.0
 11
-13.12820448253309
 21
1.464011294067625
 31
0.0
 12
-11.72747395864875
 22
1.461887820541071
 32
0.0
 13
-11.72747395864875
 23
1.461887820541071
 33
0.0
210
0.0
220
0.0
230
-1.0
  0
SOLID
  5
46E
330
462
100
AcDbEntity
  8
LAYER_1
  6
Continuous
 62
     7
100
AcDbTrace
 10
-8.376475439345909
 20
2.475324736611705
 30
0.0
 11
-9.94021882147906
 21
1.461887820541071
 31
0.0
 12
-8.539551215329101
 22
1.464011294067625
 32
0.0
 13
-8.539551215329101
 23
1.464011294067625
 33
0.0
210
0.0
220
0.0
230
-1.0
  0
SOLID
  5
46F
330
462
100
AcDbEntity
  8
LAYER_1
  6
Continuous
 62
     7
100
AcDbTrace
 10
-9.674929690986047
 20
2.475324736611705
 30
0.0
 11
-9.94021882147906
 21
1.461887820541071
 31
0.0
 12
-8.376475439345909
 22
2.475324736611705
 32
0.0
 13
-8.376475439345909
 23
2.475324736611705
 33
0.0
210
0.0
220
0.0
230
-1.0
  0
SOLID
  5
470
330
462
100
AcDbEntity
  8
LAYER_1
  6
Continuous
 62
     7
100
AcDbTrace
 10
-13.29127326765694
 20
2.475324736611705
 30
0.0
 11
-13.12820448253309
 21
1.464011294067625
 31
0.0
 12
-11.99276308914176
 22
2.475324736611705
 32
0.0
 13
-11.99276308914176
 23
2.475324736611705
 33
0.0
210
0.0
220
0.0
230
-1.0
  0
SOLID
  5
471
330
462
100
AcDbEntity
  8
LAYER_1
  6
Continuous
 62
     7
100
AcDbTrace
 10
-8.539551215329101
 20
3.486661773305798
 30
0.0
 11
-9.674929690986047
 21
2.475324736611705
 31
0.0
 12
-8.376475439345909
 22
2.475324736611705
 32
0.0
 13
-8.376475439345909
 23
2.475324736611705
 33
0.0
210
0.0
220
0.0
230
-1.0
  0
SOLID
  5
472
330
462
100
AcDbEntity
  8
LAYER_1
  6
Continuous
 62
     7
100
AcDbTrace
 10
-13.12820448253309
 20
3.486661773305798
 30
0.0
 11
-13.29127326765694
 21
2.475324736611705
 31
0.0
 12
-11.99276308914176
 22
2.475324736611705
 32
0.0
 13
-11.99276308914176
 23
2.475324736611705
 33
0.0
210
0.0
220
0.0
230
-1.0
  0
SOLID
  5
473
330
462
100
AcDbEntity
  8
LAYER_1
  6
Continuous
 62
     7
100
AcDbTrace
 10
-9.94021882147906
 20
3.488705725807319
 30
0.0
 11
-9.674929690986047
 21
2.475324736611705
 31
0.0
 12
-8.539551215329101
 22
3.486661773305798
 32
0.0
 13
-8.539551215329101
 23
3.486661773305798
 33
0.0
210
0.0
220
0.0
230
-1.0
  0
SOLID
  5
474
330
462
100
AcDbEntity
  8
LAYER_1
  6
Continuous
 62
     7
100
AcDbTrace
 10
-11.72747395864875
 20
3.488705725807319
 30
0.0
 11
-13.12820448253309
 21
3.486661773305798
 31
0.0
 12
-11.99276308914176
 22
2.475324736611705
 32
0.0
 13
-11.99276308914176
 23
2.475324736611705
 33
0.0
210
0.0
220
0.0
230
-1.0
  0
SOLID
  5
475
330
462
100
AcDbEntity
  8
LAYER_1
  6
Continuous
 62
     7
100
AcDbTrace
 10
-10.29932528440633
 20
3.822660824519511
 30
0.0
 11
-9.94021882147906
 21
3.488705725807319
 31
0.0
 12
-8.539551215329101
 22
3.486661773305798
 32
0.0
 13
-8.539551215329101
 23
3.486661773305798
 33
0.0
210
0.0
220
0.0
230
-1.0
  0
SOLID
  5
476
330
462
100
AcDbEntity
  8
LAYER_1
  6
Continuous
 62
     7
100
AcDbTrace
 10
-11.36836749572148
 20
3.822660824519513
 30
0.0
 11
-13.12820448253309
 21
3.486661773305798
 31
0.0
 12
-11.72747395864875
 22
3.488705725807319
 32
0.0
 13
-11.72747395864875
 23
3.488705725807319
 33
0.0
210
0.0
220
0.0
230
-1.0
  0
SOLID
  5
477
330
462
100
AcDbEntity
  8
LAYER_1
  6
Continuous
 62
     7
100
AcDbTrace
 10
-10.83384639006391
 20
3.949333448168964
 30
0.0
 11
-10.29932528440633
 21
3.822660824519511
 31
0.0
 12
-8.539551215329101
 22
3.486661773305798
 32
0.0
 13
-8.539551215329101
 23
3.486661773305798
 33
0.0
210
0.0
220
0.0
230
-1.0
  0
SOLID
  5
478
330
462
100
AcDbEntity
  8
LAYER_1
  6
Continuous
 62
     7
100
AcDbTrace
 10
-10.83384639006391
 20
3.949333448168964
 30
0.0
 11
-13.12820448253309
 21
3.486661773305798
 31
0.0
 12
-11.36836749572148
 22
3.822660824519513
 32
0.0
 13
-11.36836749572148
 23
3.822660824519513
 33
0.0
210
0.0
220
0.0
230
-1.0
  0
SOLID
  5
479
330
462
100
AcDbEntity
  8
LAYER_1
  6
Continuous
 62
     7
100
AcDbTrace
 10
-9.01612508786092
 20
4.308307084768721
 30
0.0
 11
-10.83384639006391
 21
3.949333448168964
 31
0.0
 12
-8.539551215329101
 22
3.486661773305798
 32
0.0
 13
-8.539551215329101
 23
3.486661773305798
 33
0.0
210
0.0
220
0.0
230
-1.0
  0
SOLID
  5
47A
330
462
100
AcDbEntity
  8
LAYER_1
  6
Continuous
 62
     7
100
AcDbTrace
 10
-12.65163760086059
 20
4.308307084768721
 30
0.0
 11
-10.83384639006391
 21
3.949333448168964
 31
0.0
 12
-9.01612508786092
 22
4.308307084768721
 32
0.0
 13
-9.01612508786092
 23
4.308307084768721
 33
0.0
210
0.0
220
0.0
230
-1.0
  0
SOLID
  5
47B
330
462
100
AcDbEntity
  8
LAYER_1
  6
Continuous
 62
     7
100
AcDbTrace
 10
-12.65163760086059
 20
4.308307084768721
 30
0.0
 11
-13.12820448253309
 21
3.486661773305798
 31
0.0
 12
-10.83384639006391
 22
3.949333448168964
 32
0.0
 13
-10.83384639006391
 23
3.949333448168964
 33
0.0
210
0.0
220
0.0
230
-1.0
  0
SOLID
  5
47C
330
462
100
AcDbEntity
  8
LAYER_1
  6
Continuous
 62
     7
100
AcDbTrace
 10
-9.787216873814736
 20
4.860087748296242
 30
0.0
 11
-12.65163760086059
 21
4.308307084768721
 31
0.0
 12
-9.01612508786092
 22
4.308307084768721
 32
0.0
 13
-9.01612508786092
 23
4.308307084768721
 33
0.0
210
0.0
220
0.0
230
-1.0
  0
SOLID
  5
47D
330
462
100
AcDbEntity
  8
LAYER_1
  6
Continuous
 62
     7
100
AcDbTrace
 10
-11.88053183318799
 20
4.860087748296242
 30
0.0
 11
-12.65163760086059
 21
4.308307084768721
 31
0.0
 12
-9.787216873814736
 22
4.860087748296242
 32
0.0
 13
-9.787216873814736
 23
4.860087748296242
 33
0.0
210
0.0
220
0.0
230
-1.0
  0
SOLID
  5
47E
330
462
100
AcDbEntity
  8
LAYER_1
  6
Continuous
 62
     7
100
AcDbTrace
 10
-10.83384639006391
 20
5.061830841184132
 30
0.0
 11
-11.88053183318799
 21
4.860087748296242
 31
0.0
 12
-9.787216873814736
 22
4.860087748296242
 32
0.0
 13
-9.787216873814736
 23
4.860087748296242
 33
0.0
210
0.0
220
0.0
230
-1.0
  0
ENDBLK
  5
480
330
462
100
AcDbEntity
  8
0
100
AcDbBlockEnd
  0
BLOCK
  5
4B4
330
481
100
AcDbEntity
  8
0
100
AcDbBlockBegin
  2
*U12
 70
     1
 10
0.0
 20
0.0
 30
0.0
  3
*U12
  1

  0
SOLID
  5
482
330
481
100
AcDbEntity
  8
LAYER_1
  6
Continuous
 62
     7
100
AcDbTrace
 10
-14.59554391427368
 20
-0.0018593130656603
 30
0.0
 11
-14.49365199848675
 21
-0.0070455271303696
 31
0.0
 12
-14.18468717810295
 22
-0.0070455271303696
 32
0.0
 13
-14.18468717810295
 23
-0.0070455271303696
 33
0.0
210
0.0
220
0.0
230
-1.0
  0
SOLID
  5
483
330
481
100
AcDbEntity
  8
LAYER_1
  6
Continuous
 62
     7
100
AcDbTrace
 10
-14.59554391427368
 20
-0.0018593130656603
 30
0.0
 11
-14.18468717810295
 21
-0.0070455271303696
 31
0.0
 12
-13.45625657197925
 22
-0.0070455271303696
 32
0.0
 13
-13.45625657197925
 23
-0.0070455271303696
 33
0.0
210
0.0
220
0.0
230
-1.0
  0
SOLID
  5
484
330
481
100
AcDbEntity
  8
LAYER_1
  6
Continuous
 62
     7
100
AcDbTrace
 10
-14.59554391427368
 20
-0.0018593130656603
 30
0.0
 11
-13.45625657197925
 21
-0.0070455271303696
 31
0.0
 12
-13.29797488617196
 22
-0.0070455271303696
 32
0.0
 13
-13.29797488617196
 23
-0.0070455271303696
 33
0.0
210
0.0
220
0.0
230
-1.0
  0
SOLID
  5
485
330
481
100
AcDbEntity
  8
LAYER_1
  6
Continuous
 62
     7
100
AcDbTrace
 10
-13.29703373575876
 20
0.0966466303565281
 30
0.0
 11
-14.59554391427368
 21
-0.0018593130656603
 31
0.0
 12
-13.29797488617196
 22
-0.0070455271303696
 32
0.0
 13
-13.29797488617196
 23
-0.0070455271303696
 33
0.0
210
0.0
220
0.0
230
-1.0
  0
SOLID
  5
486
330
481
100
AcDbEntity
  8
LAYER_1
  6
Continuous
 62
     7
100
AcDbTrace
 10
-16.37189490838297
 20
0.2228054626990108
 30
0.0
 11
-17.70542484784126
 21
-0.0070455271303696
 31
0.0
 12
-17.09486002107263
 22
-0.0070455271303696
 32
0.0
 13
-17.09486002107263
 23
-0.0070455271303696
 33
0.0
210
0.0
220
0.0
230
-1.0
  0
SOLID
  5
487
330
481
100
AcDbEntity
  8
LAYER_1
  6
Continuous
 62
     7
100
AcDbTrace
 10
-16.37189490838297
 20
0.2228054626990108
 30
0.0
 11
-17.09486002107263
 21
-0.0070455271303696
 31
0.0
 12
-16.484295194304
 22
-0.0070455271303696
 32
0.0
 13
-16.484295194304
 23
-0.0070455271303696
 33
0.0
210
0.0
220
0.0
230
-1.0
  0
SOLID
  5
488
330
481
100
AcDbEntity
  8
LAYER_1
  6
Continuous
 62
     7
100
AcDbTrace
 10
-14.59554391427368
 20
0.244334130660373
 30
0.0
 11
-14.59554391427368
 21
-0.0018593130656603
 31
0.0
 12
-13.29703373575876
 22
0.0966466303565281
 32
0.0
 13
-13.29703373575876
 23
0.0966466303565281
 33
0.0
210
0.0
220
0.0
230
-1.0
  0
SOLID
  5
489
330
481
100
AcDbEntity
  8
LAYER_1
  6
Continuous
 62
     7
100
AcDbTrace
 10
-17.61406267926694
 20
0.2907652175838345
 30
0.0
 11
-17.70542484784126
 21
-0.0070455271303696
 31
0.0
 12
-16.37189490838297
 22
0.2228054626990108
 32
0.0
 13
-16.37189490838297
 23
0.2228054626990108
 33
0.0
210
0.0
220
0.0
230
-1.0
  0
SOLID
  5
48A
330
481
100
AcDbEntity
  8
LAYER_1
  6
Continuous
 62
     7
100
AcDbTrace
 10
-13.29703373575876
 20
0.4511108445280984
 30
0.0
 11
-14.59554391427368
 21
0.244334130660373
 31
0.0
 12
-13.29703373575876
 22
0.0966466303565281
 32
0.0
 13
-13.29703373575876
 23
0.0966466303565281
 33
0.0
210
0.0
220
0.0
230
-1.0
  0
SOLID
  5
48B
330
481
100
AcDbEntity
  8
LAYER_1
  6
Continuous
 62
     7
100
AcDbTrace
 10
-14.59554391427368
 20
0.7282934202572876
 30
0.0
 11
-14.59554391427368
 21
0.244334130660373
 31
0.0
 12
-13.29703373575876
 22
0.4511108445280984
 32
0.0
 13
-13.29703373575876
 23
0.4511108445280984
 33
0.0
210
0.0
220
0.0
230
-1.0
  0
SOLID
  5
48C
330
481
100
AcDbEntity
  8
LAYER_1
  6
Continuous
 62
     7
100
AcDbTrace
 10
-16.28970603757667
 20
0.9730266388495662
 30
0.0
 11
-17.61406267926694
 21
0.2907652175838345
 31
0.0
 12
-16.37189490838297
 22
0.2228054626990108
 32
0.0
 13
-16.37189490838297
 23
0.2228054626990108
 33
0.0
210
0.0
220
0.0
230
-1.0
  0
SOLID
  5
48D
330
481
100
AcDbEntity
  8
LAYER_1
  6
Continuous
 62
     7
100
AcDbTrace
 10
-17.5062880415307
 20
1.294218066877437
 30
0.0
 11
-17.61406267926694
 21
0.2907652175838345
 31
0.0
 12
-16.28970603757667
 22
0.9730266388495662
 32
0.0
 13
-16.28970603757667
 23
0.9730266388495662
 33
0.0
210
0.0
220
0.0
230
-1.0
  0
SOLID
  5
48E
330
481
100
AcDbEntity
  8
LAYER_1
  6
Continuous
 62
     7
100
AcDbTrace
 10
-16.13782378629289
 20
1.51610394191697
 30
0.0
 11
-17.5062880415307
 21
1.294218066877437
 31
0.0
 12
-16.28970603757667
 22
0.9730266388495662
 32
0.0
 13
-16.28970603757667
 23
0.9730266388495662
 33
0.0
210
0.0
220
0.0
230
-1.0
  0
SOLID
  5
48F
330
481
100
AcDbEntity
  8
LAYER_1
  6
Continuous
 62
     7
100
AcDbTrace
 10
-13.29703373575876
 20
1.673732332686471
 30
0.0
 11
-14.59554391427368
 21
0.7282934202572876
 31
0.0
 12
-13.29703373575876
 22
0.4511108445280984
 32
0.0
 13
-13.29703373575876
 23
0.4511108445280984
 33
0.0
210
0.0
220
0.0
230
-1.0
  0
SOLID
  5
490
330
481
100
AcDbEntity
  8
LAYER_1
  6
Continuous
 62
     7
100
AcDbTrace
 10
-14.59554391427368
 20
1.682225773223418
 30
0.0
 11
-14.59554391427368
 21
0.7282934202572876
 31
0.0
 12
-13.29703373575876
 22
1.673732332686471
 32
0.0
 13
-13.29703373575876
 23
1.673732332686471
 33
0.0
210
0.0
220
0.0
230
-1.0
  0
SOLID
  5
491
330
481
100
AcDbEntity
  8
LAYER_1
  6
Continuous
 62
     7
100
AcDbTrace
 10
-15.68778388596696
 20
1.79494601384587
 30
0.0
 11
-17.5062880415307
 21
1.294218066877437
 31
0.0
 12
-16.13782378629289
 22
1.51610394191697
 32
0.0
 13
-16.13782378629289
 23
1.51610394191697
 33
0.0
210
0.0
220
0.0
230
-1.0
  0
SOLID
  5
492
330
481
100
AcDbEntity
  8
LAYER_1
  6
Continuous
 62
     7
100
AcDbTrace
 10
-14.74935155847783
 20
1.800846626831121
 30
0.0
 11
-14.59554391427368
 21
1.682225773223418
 31
0.0
 12
-13.29703373575876
 22
1.673732332686471
 32
0.0
 13
-13.29703373575876
 23
1.673732332686471
 33
0.0
210
0.0
220
0.0
230
-1.0
  0
SOLID
  5
493
330
481
100
AcDbEntity
  8
LAYER_1
  6
Continuous
 62
     7
100
AcDbTrace
 10
-17.32664228017243
 20
1.878579096176909
 30
0.0
 11
-15.68778388596696
 21
1.79494601384587
 31
0.0
 12
-14.74935155847783
 22
1.800846626831121
 32
0.0
 13
-14.74935155847783
 23
1.800846626831121
 33
0.0
210
0.0
220
0.0
230
-1.0
  0
SOLID
  5
494
330
481
100
AcDbEntity
  8
LAYER_1
  6
Continuous
 62
     7
100
AcDbTrace
 10
-17.32664228017243
 20
1.878579096176909
 30
0.0
 11
-17.5062880415307
 21
1.294218066877437
 31
0.0
 12
-15.68778388596696
 22
1.79494601384587
 32
0.0
 13
-15.68778388596696
 23
1.79494601384587
 33
0.0
210
0.0
220
0.0
230
-1.0
  0
SOLID
  5
495
330
481
100
AcDbEntity
  8
LAYER_1
  6
Continuous
 62
     7
100
AcDbTrace
 10
-16.896776069584
 20
2.272719487802774
 30
0.0
 11
-17.32664228017243
 21
1.878579096176909
 31
0.0
 12
-14.74935155847783
 22
1.800846626831121
 32
0.0
 13
-14.74935155847783
 23
1.800846626831121
 33
0.0
210
0.0
220
0.0
230
-1.0
  0
SOLID
  5
496
330
481
100
AcDbEntity
  8
LAYER_1
  6
Continuous
 62
     7
100
AcDbTrace
 10
-16.896776069584
 20
2.272719487802774
 30
0.0
 11
-14.74935155847783
 21
1.800846626831121
 31
0.0
 12
-13.29703373575876
 22
1.673732332686471
 32
0.0
 13
-13.29703373575876
 23
1.673732332686471
 33
0.0
210
0.0
220
0.0
230
-1.0
  0
SOLID
  5
497
330
481
100
AcDbEntity
  8
LAYER_1
  6
Continuous
 62
     7
100
AcDbTrace
 10
-16.80163541662984
 20
2.313253896659734
 30
0.0
 11
-16.896776069584
 21
2.272719487802774
 31
0.0
 12
-13.29703373575876
 22
1.673732332686471
 32
0.0
 13
-13.29703373575876
 23
1.673732332686471
 33
0.0
210
0.0
220
0.0
230
-1.0
  0
SOLID
  5
498
330
481
100
AcDbEntity
  8
LAYER_1
  6
Continuous
 62
     7
100
AcDbTrace
 10
-16.80163541662984
 20
2.315340874265102
 30
0.0
 11
-16.80163541662984
 21
2.313253896659734
 31
0.0
 12
-13.29703373575876
 22
1.673732332686471
 32
0.0
 13
-13.29703373575876
 23
1.673732332686471
 33
0.0
210
0.0
220
0.0
230
-1.0
  0
SOLID
  5
499
330
481
100
AcDbEntity
  8
LAYER_1
  6
Continuous
 62
     7
100
AcDbTrace
 10
-17.02766882720066
 20
2.431305317806824
 30
0.0
 11
-16.80163541662984
 21
2.315340874265102
 31
0.0
 12
-13.29703373575876
 22
1.673732332686471
 32
0.0
 13
-13.29703373575876
 23
1.673732332686471
 33
0.0
210
0.0
220
0.0
230
-1.0
  0
SOLID
  5
49A
330
481
100
AcDbEntity
  8
LAYER_1
  6
Continuous
 62
     7
100
AcDbTrace
 10
-15.34002128022992
 20
2.802161392793691
 30
0.0
 11
-17.02766882720066
 21
2.431305317806824
 31
0.0
 12
-13.29703373575876
 22
1.673732332686471
 32
0.0
 13
-13.29703373575876
 23
1.673732332686471
 33
0.0
210
0.0
220
0.0
230
-1.0
  0
SOLID
  5
49B
330
481
100
AcDbEntity
  8
LAYER_1
  6
Continuous
 62
     7
100
AcDbTrace
 10
-13.29703373575876
 20
1.673732332686471
 30
0.0
 11
-14.84813444915169
 21
2.802161392793691
 31
0.0
 12
-15.34002128022992
 22
2.802161392793691
 32
0.0
 13
-15.34002128022992
 23
2.802161392793691
 33
0.0
210
0.0
220
0.0
230
-1.0
  0
SOLID
  5
49C
330
481
100
AcDbEntity
  8
LAYER_1
  6
Continuous
 62
     7
100
AcDbTrace
 10
-13.29703373575876
 20
1.673732332686471
 30
0.0
 11
-14.59554391427368
 21
2.802161392793691
 31
0.0
 12
-14.84813444915169
 22
2.802161392793691
 32
0.0
 13
-14.84813444915169
 23
2.802161392793691
 33
0.0
210
0.0
220
0.0
230
-1.0
  0
SOLID
  5
49D
330
481
100
AcDbEntity
  8
LAYER_1
  6
Continuous
 62
     7
100
AcDbTrace
 10
-15.94338072248256
 20
2.840612866916119
 30
0.0
 11
-17.02766882720066
 21
2.431305317806824
 31
0.0
 12
-15.34002128022992
 22
2.802161392793691
 32
0.0
 13
-15.34002128022992
 23
2.802161392793691
 33
0.0
210
0.0
220
0.0
230
-1.0
  0
SOLID
  5
49E
330
481
100
AcDbEntity
  8
LAYER_1
  6
Continuous
 62
     7
100
AcDbTrace
 10
-17.43466573174106
 20
2.896603492320373
 30
0.0
 11
-17.02766882720066
 21
2.431305317806824
 31
0.0
 12
-15.94338072248256
 22
2.840612866916119
 32
0.0
 13
-15.94338072248256
 23
2.840612866916119
 33
0.0
210
0.0
220
0.0
230
-1.0
  0
SOLID
  5
49F
330
481
100
AcDbEntity
  8
LAYER_1
  6
Continuous
 62
     7
100
AcDbTrace
 10
-14.59554391427368
 20
3.061782383682786
 30
0.0
 11
-14.59554391427368
 21
2.802161392793691
 31
0.0
 12
-13.29703373575876
 22
1.673732332686471
 32
0.0
 13
-13.29703373575876
 23
1.673732332686471
 33
0.0
210
0.0
220
0.0
230
-1.0
  0
SOLID
  5
4A0
330
481
100
AcDbEntity
  8
LAYER_1
  6
Continuous
 62
     7
100
AcDbTrace
 10
-13.29703373575876
 20
3.165202525047209
 30
0.0
 11
-14.59554391427368
 21
3.061782383682786
 31
0.0
 12
-13.29703373575876
 22
1.673732332686471
 32
0.0
 13
-13.29703373575876
 23
1.673732332686471
 33
0.0
210
0.0
220
0.0
230
-1.0
  0
SOLID
  5
4A1
330
481
100
AcDbEntity
  8
LAYER_1
  6
Continuous
 62
     7
100
AcDbTrace
 10
-16.27532911686574
 20
3.253227585748696
 30
0.0
 11
-17.43466573174106
 21
2.896603492320373
 31
0.0
 12
-15.94338072248256
 22
2.840612866916119
 32
0.0
 13
-15.94338072248256
 23
2.840612866916119
 33
0.0
210
0.0
220
0.0
230
-1.0
  0
SOLID
  5
4A2
330
481
100
AcDbEntity
  8
LAYER_1
  6
Continuous
 62
     7
100
AcDbTrace
 10
-17.58284779251481
 20
3.509923931173083
 30
0.0
 11
-17.43466573174106
 21
2.896603492320373
 31
0.0
 12
-16.27532911686574
 22
3.253227585748696
 32
0.0
 13
-16.27532911686574
 23
3.253227585748696
 33
0.0
210
0.0
220
0.0
230
-1.0
  0
SOLID
  5
4A3
330
481
100
AcDbEntity
  8
LAYER_1
  6
Continuous
 62
     7
100
AcDbTrace
 10
-14.59554391427368
 20
3.567360102782603
 30
0.0
 11
-14.59554391427368
 21
3.061782383682786
 31
0.0
 12
-13.29703373575876
 22
3.165202525047209
 32
0.0
 13
-13.29703373575876
 23
3.165202525047209
 33
0.0
210
0.0
220
0.0
230
-1.0
  0
SOLID
  5
4A4
330
481
100
AcDbEntity
  8
LAYER_1
  6
Continuous
 62
     7
100
AcDbTrace
 10
-16.09309784011139
 20
3.792046103724973
 30
0.0
 11
-17.58284779251481
 21
3.509923931173083
 31
0.0
 12
-16.27532911686574
 22
3.253227585748696
 32
0.0
 13
-16.27532911686574
 23
3.253227585748696
 33
0.0
210
0.0
220
0.0
230
-1.0
  0
SOLID
  5
4A5
330
481
100
AcDbEntity
  8
LAYER_1
  6
Continuous
 62
     7
100
AcDbTrace
 10
-14.59554391427368
 20
3.908966669741941
 30
0.0
 11
-14.59554391427368
 21
3.567360102782603
 31
0.0
 12
-13.29703373575876
 22
3.165202525047209
 32
0.0
 13
-13.29703373575876
 23
3.165202525047209
 33
0.0
210
0.0
220
0.0
230
-1.0
  0
SOLID
  5
4A6
330
481
100
AcDbEntity
  8
LAYER_1
  6
Continuous
 62
     7
100
AcDbTrace
 10
-15.58439550727206
 20
3.921537791406045
 30
0.0
 11
-17.58284779251481
 21
3.509923931173083
 31
0.0
 12
-16.09309784011139
 22
3.792046103724973
 32
0.0
 13
-16.09309784011139
 23
3.792046103724973
 33
0.0
210
0.0
220
0.0
230
-1.0
  0
SOLID
  5
4A7
330
481
100
AcDbEntity
  8
LAYER_1
  6
Continuous
 62
     7
100
AcDbTrace
 10
-17.51120943455551
 20
4.023742144288865
 30
0.0
 11
-15.58439550727206
 21
3.921537791406045
 31
0.0
 12
-14.75698907231425
 22
3.921537791406045
 32
0.0
 13
-14.75698907231425
 23
3.921537791406045
 33
0.0
210
0.0
220
0.0
230
-1.0
  0
SOLID
  5
4A8
330
481
100
AcDbEntity
  8
LAYER_1
  6
Continuous
 62
     7
100
AcDbTrace
 10
-17.51120943455551
 20
4.023742144288865
 30
0.0
 11
-17.58284779251481
 21
3.509923931173083
 31
0.0
 12
-15.58439550727206
 22
3.921537791406045
 32
0.0
 13
-15.58439550727206
 23
3.921537791406045
 33
0.0
210
0.0
220
0.0
230
-1.0
  0
SOLID
  5
4A9
330
481
100
AcDbEntity
  8
LAYER_1
  6
Continuous
 62
     7
100
AcDbTrace
 10
-13.29703373575876
 20
4.426230970948776
 30
0.0
 11
-17.51120943455551
 21
4.023742144288865
 31
0.0
 12
-14.75698907231425
 22
3.921537791406045
 32
0.0
 13
-14.75698907231425
 23
3.921537791406045
 33
0.0
210
0.0
220
0.0
230
-1.0
  0
SOLID
  5
4AA
330
481
100
AcDbEntity
  8
LAYER_1
  6
Continuous
 62
     7
100
AcDbTrace
 10
-13.29703373575876
 20
4.426230970948776
 30
0.0
 11
-14.75698907231425
 21
3.921537791406045
 31
0.0
 12
-14.59554391427368
 22
3.908966669741941
 32
0.0
 13
-14.59554391427368
 23
3.908966669741941
 33
0.0
210
0.0
220
0.0
230
-1.0
  0
SOLID
  5
4AB
330
481
100
AcDbEntity
  8
LAYER_1
  6
Continuous
 62
     7
100
AcDbTrace
 10
-13.29703373575876
 20
4.426230970948776
 30
0.0
 11
-14.59554391427368
 21
3.908966669741941
 31
0.0
 12
-13.29703373575876
 22
3.165202525047209
 32
0.0
 13
-13.29703373575876
 23
3.165202525047209
 33
0.0
210
0.0
220
0.0
230
-1.0
  0
SOLID
  5
4AC
330
481
100
AcDbEntity
  8
LAYER_1
  6
Continuous
 62
     7
100
AcDbTrace
 10
-17.26330849092825
 20
4.442210769323228
 30
0.0
 11
-17.51120943455551
 21
4.023742144288865
 31
0.0
 12
-13.29703373575876
 22
4.426230970948776
 32
0.0
 13
-13.29703373575876
 23
4.426230970948776
 33
0.0
210
0.0
220
0.0
230
-1.0
  0
SOLID
  5
4AD
330
481
100
AcDbEntity
  8
LAYER_1
  6
Continuous
 62
     7
100
AcDbTrace
 10
-13.29703373575876
 20
4.814301273145641
 30
0.0
 11
-17.26330849092825
 21
4.442210769323228
 31
0.0
 12
-13.29703373575876
 22
4.426230970948776
 32
0.0
 13
-13.29703373575876
 23
4.426230970948776
 33
0.0
210
0.0
220
0.0
230
-1.0
  0
SOLID
  5
4AE
330
481
100
AcDbEntity
  8
LAYER_1
  6
Continuous
 62
     7
100
AcDbTrace
 10
-16.40462923520233
 20
4.898459477808981
 30
0.0
 11
-17.26330849092825
 21
4.442210769323228
 31
0.0
 12
-13.29703373575876
 22
4.814301273145641
 32
0.0
 13
-13.29703373575876
 23
4.814301273145641
 33
0.0
210
0.0
220
0.0
230
-1.0
  0
SOLID
  5
4AF
330
481
100
AcDbEntity
  8
LAYER_1
  6
Continuous
 62
     7
100
AcDbTrace
 10
-15.87951363828102
 20
4.957236207075083
 30
0.0
 11
-16.40462923520233
 21
4.898459477808981
 31
0.0
 12
-13.29703373575876
 22
4.814301273145641
 32
0.0
 13
-13.29703373575876
 23
4.814301273145641
 33
0.0
210
0.0
220
0.0
230
-1.0
  0
SOLID
  5
4B0
330
481
100
AcDbEntity
  8
LAYER_1
  6
Continuous
 62
     7
100
AcDbTrace
 10
-15.87951363828102
 20
4.957236207075083
 30
0.0
 11
-14.21448737161902
 21
4.957527219729641
 31
0.0
 12
-15.6037743059217
 22
4.957527219729641
 32
0.0
 13
-15.6037743059217
 23
4.957527219729641
 33
0.0
210
0.0
220
0.0
230
-1.0
  0
SOLID
  5
4B1
330
481
100
AcDbEntity
  8
LAYER_1
  6
Continuous
 62
     7
100
AcDbTrace
 10
-15.87951363828102
 20
4.957236207075083
 30
0.0
 11
-13.56899320638877
 21
4.957527219729641
 31
0.0
 12
-14.21448737161902
 22
4.957527219729641
 32
0.0
 13
-14.21448737161902
 23
4.957527219729641
 33
0.0
210
0.0
220
0.0
230
-1.0
  0
SOLID
  5
4B2
330
481
100
AcDbEntity
  8
LAYER_1
  6
Continuous
 62
     7
100
AcDbTrace
 10
-15.87951363828102
 20
4.957236207075083
 30
0.0
 11
-13.29703373575876
 21
4.957527219729641
 31
0.0
 12
-13.56899320638877
 22
4.957527219729641
 32
0.0
 13
-13.56899320638877
 23
4.957527219729641
 33
0.0
210
0.0
220
0.0
230
-1.0
  0
SOLID
  5
4B3
330
481
100
AcDbEntity
  8
LAYER_1
  6
Continuous
 62
     7
100
AcDbTrace
 10
-13.29703373575876
 20
4.957527219729641
 30
0.0
 11
-15.87951363828102
 21
4.957236207075083
 31
0.0
 12
-13.29703373575876
 22
4.814301273145641
 32
0.0
 13
-13.29703373575876
 23
4.814301273145641
 33
0.0
210
0.0
220
0.0
230
-1.0
  0
ENDBLK
  5
4B5
330
481
100
AcDbEntity
  8
0
100
AcDbBlockEnd
  0
BLOCK
  5
506
330
4C2
100
AcDbEntity
  8
0
100
AcDbBlockBegin
  2
A3-LANDSCAPE-THOR-LABS
 70
     2
 10
0.0
 20
0.0
 30
0.0
  3
A3-LANDSCAPE-THOR-LABS
  1

  0
LINE
  5
4C3
330
4C2
100
AcDbEntity
  8
BORDER
100
AcDbLine
 10
252.7258526944418
 20
19.81840191352356
 30
0.0
 11
252.7258526944418
 21
12.70728373170538
 31
0.0
  0
LINE
  5
4C4
330
4C2
100
AcDbEntity
  8
BORDER
100
AcDbLine
 10
260.759629044304
 20
5.132210156982563
 30
0.0
 11
260.759629044304
 21
19.81840191352356
 31
0.0
  0
TEXT
  5
4C5
330
4C2
100
AcDbEntity
  8
BORDER
100
AcDbText
 10
227.5586443719081
 20
35.12580334401734
 30
0.0
 40
1.5852889942365
  1
SURF. FINISH: 
  7
BORDER
100
AcDbText
  0
TEXT
  5
4C6
330
4C2
100
AcDbEntity
  8
D1
100
AcDbText
 10
245.3242573397253
 20
48.13357640548476
 30
0.0
 40
2.198181818181818
  1

100
AcDbText
  0
LINE
  5
4C7
330
4C2
100
AcDbEntity
  8
BORDER
100
AcDbLine
 10
225.8851910415494
 20
19.81840191352356
 30
0.0
 11
309.1322101569825
 21
19.81840191352356
 31
0.0
  0
LINE
  5
4C8
330
4C2
100
AcDbEntity
  8
BORDER
100
AcDbLine
 10
225.8851910415494
 20
12.70728373170538
 30
0.0
 11
309.1322101569825
 21
12.70728373170538
 31
0.0
  0
LINE
  5
4C9
330
4C2
100
AcDbEntity
  8
BORDER
100
AcDbLine
 10
251.860098199897
 20
26.96755688370352
 30
0.0
 11
251.860098199897
 21
34.07867506552171
 31
0.0
  0
LINE
  5
4CA
330
4C2
100
AcDbEntity
  8
BORDER
100
AcDbLine
 10
245.8150981998968
 20
12.70728373170538
 30
0.0
 11
245.8150981998968
 21
19.81840191352356
 31
0.0
  0
TEXT
  5
4CB
330
4C2
100
AcDbEntity
  8
BORDER
100
AcDbText
 10
228.0185264960949
 20
10.33691100443265
 30
0.0
 40
1.465454545454545
  1
DWG NO.
  7
BORDER
100
AcDbText
  0
TEXT
  5
4CC
330
4C2
100
AcDbEntity
  8
BORDER
100
AcDbText
 10
227.9000078597313
 20
24.33284300617869
 30
0.0
 40
1.659260909090908
  1
MATERIAL
100
AcDbText
  0
TEXT
  5
4CD
330
4C2
100
AcDbEntity
  8
BORDER
100
AcDbText
 10
228.0185264960948
 20
17.44802918625082
 30
0.0
 40
1.465454545454545
  1
DATE
  7
BORDER
100
AcDbText
  0
TEXT
  5
4CE
330
4C2
100
AcDbEntity
  8
BORDER
100
AcDbText
 10
227.9000078597313
 20
49.716408148956
 30
0.0
 40
1.659260909090908
  1
TITLE
  7
BORDER
100
AcDbText
  0
TEXT
  5
4CF
330
4C2
100
AcDbEntity
  8
BORDER
100
AcDbText
 10
227.7421507409073
 20
31.69880034204175
 30
0.0
 40
1.465454545454545
  1
DRAWN
  7
BORDER
100
AcDbText
  0
LINE
  5
4D0
330
4C2
100
AcDbEntity
  8
BORDER
100
AcDbLine
 10
272.3398254726242
 20
26.92952009534172
 30
0.0
 11
272.3398254726242
 21
34.04063827715992
 31
0.0
  0
TEXT
  5
4D1
330
4C2
100
AcDbEntity
  8
BORDER
100
AcDbText
 10
254.3720907549873
 20
17.37218910250327
 30
0.0
 40
1.465454545454545
  1
SIZE
  7
BORDER
 72
     1
 11
256.6066946890649
 21
17.37218910250327
 31
0.0
100
AcDbText
  0
TEXT
  5
4D2
330
4C2
100
AcDbEntity
  8
BORDER
100
AcDbText
 10
274.708872793576
 20
31.69880034204175
 30
0.0
 40
1.465454545454545
  1
APPROVED
  7
BORDER
100
AcDbText
  0
TEXT
  5
4D3
330
4C2
100
AcDbEntity
  8
BORDER
100
AcDbText
 10
262.2737055594555
 20
10.33691100443265
 30
0.0
 40
1.465454545454545
  1
PART NO.
  7
BORDER
100
AcDbText
  0
TEXT
  5
4D4
330
4C2
100
AcDbEntity
  8
BORDER
100
AcDbText
 10
246.5720928321829
 20
17.3295105498872
 30
0.0
 40
1.465454545454545
  1
REV
  7
BORDER
100
AcDbText
  0
TEXT
  5
4D5
330
4C2
100
AcDbEntity
  8
BORDER
100
AcDbText
 10
261.7226276806677
 20
17.3355586073845
 30
0.0
 40
1.465454545454545
  1
SHEET
  7
BORDER
100
AcDbText
  0
TEXT
  5
4D6
330
4C2
100
AcDbEntity
  8
BORDER
100
AcDbText
 10
252.4057466224501
 20
31.69880034204175
 30
0.0
 40
1.465454545454545
  1
ENGINEER
  7
BORDER
100
AcDbText
  0
LINE
  5
4D7
330
4C2
100
AcDbEntity
  8
BORDER
100
AcDbLine
 10
281.8826717359846
 20
19.81840191352356
 30
0.0
 11
281.8826717359846
 21
12.70728373170538
 31
0.0
  0
TEXT
  5
4D8
330
4C2
100
AcDbEntity
  8
BORDER
100
AcDbText
 10
282.8642697291556
 20
17.3355586073845
 30
0.0
 40
1.465454545454545
  1
DRAWING SCALE
  7
BORDER
100
AcDbText
  0
MTEXT
  5
4D9
330
4C2
100
AcDbEntity
  8
BORDER
100
AcDbMText
 10
11.12126604033017
 20
209.8933566151208
 30
0.0
 40
4.579179098236362
 41
171.11013636
 71
     1
 72
     5
  1
COPYRIGHT {\FSYMBOL.TTF;Ó} 2004 by THORLABS LTD.
  7
COPYRIGHT
 73
     1
 44
1.0
1001
ACAD
1000
MTEXTBEGIN
1070
    73
1070
     1
1070
    44
1040
1.0
1070
    74
1070
     0
1000
MTEXTEND
1000
MTEXTBEGIN
1070
    73
1070
     1
1070
    44
1040
1.0
1070
    74
1070
     0
1000
MTEXTEND
1000
MTEXTBEGIN
1070
    73
1070
     1
1070
    44
1040
1.0
1070
    74
1070
     0
1000
MTEXTEND
1000
MTEXTBEGIN
1070
    73
1070
     1
1070
    44
1040
1.0
1070
    74
1070
     0
1000
MTEXTEND
1000
MTEXTBEGIN
1070
    73
1070
     1
1070
    44
1040
1.0
1070
    74
1070
     0
1000
MTEXTEND
1000
MTEXTBEGIN
1070
    73
1070
     1
1070
    44
1040
1.0
1070
    74
1070
     0
1000
MTEXTEND
1000
MTEXTBEGIN
1070
    73
1070
     1
1070
    44
1040
1.0
1070
    74
1070
     0
1000
MTEXTEND
1000
MTEXTBEGIN
1070
    73
1070
     1
1070
    44
1040
1.0
1070
    74
1070
     0
1000
MTEXTEND
1000
MTEXTBEGIN
1070
    73
1070
     1
1070
    44
1040
1.0
1070
    74
1070
     0
1000
MTEXTEND
1000
MTEXTBEGIN
1070
    73
1070
     1
1070
    44
1040
1.0
1070
    74
1070
     0
1000
MTEXTEND
1000
MTEXTBEGIN
1070
    73
1070
     1
1070
    44
1040
1.0
1070
    74
1070
     0
1000
MTEXTEND
1000
MTEXTBEGIN
1070
    73
1070
     1
1070
    44
1040
1.0
1070
    74
1070
     0
1000
MTEXTEND
1000
MTEXTBEGIN
1070
    73
1070
     1
1070
    44
1040
1.0
1070
    74
1070
     0
1000
MTEXTEND
1000
MTEXTBEGIN
1070
    73
1070
     1
1070
    44
1040
1.0
1070
    74
1070
     0
1000
MTEXTEND
1000
MTEXTBEGIN
1070
    73
1070
     1
1070
    44
1040
1.0
1070
    74
1070
     0
1000
MTEXTEND
1000
MTEXTBEGIN
1070
    73
1070
     1
1070
    44
1040
1.0
1070
    74
1070
     0
1000
MTEXTEND
1000
MTEXTBEGIN
1070
    73
1070
     1
1070
    44
1040
1.0
1070
    74
1070
     0
1000
MTEXTEND
1000
MTEXTBEGIN
1070
    73
1070
     1
1070
    44
1040
1.0
1070
    74
1070
     0
1000
MTEXTEND
  0
ATTDEF
  5
4DA
330
4C2
100
AcDbEntity
  8
D1
100
AcDbText
 10
235.6022643433821
 20
28.31818806189564
 30
0.0
 40
2.0
  1

  7
BORDER
100
AcDbAttributeDefinition
  3
Draughtsman
  2
DM
 70
     0
  0
ATTDEF
  5
4DB
330
4C2
100
AcDbEntity
  8
D1
100
AcDbText
 10
257.3501509205083
 20
28.47516654059451
 30
0.0
 40
2.0
  1

  7
BORDER
100
AcDbAttributeDefinition
  3
Engineer
  2
EN
 70
     0
  0
ATTDEF
  5
4DC
330
4C2
100
AcDbEntity
  8
D1
100
AcDbText
 10
282.3882528212121
 20
28.45123152523753
 30
0.0
 40
2.0
  1

  7
BORDER
100
AcDbAttributeDefinition
  3
Approved by
  2
AP
 70
     0
  0
ATTDEF
  5
4DD
330
4C2
100
AcDbEntity
  8
D1
100
AcDbText
 10
241.0300878357369
 20
47.17133335539418
 30
0.0
 40
3.0
  1

  7
BORDER
100
AcDbAttributeDefinition
  3
Drawing Title
  2
TITLE
 70
     0
  0
ATTDEF
  5
4DE
330
4C2
100
AcDbEntity
  8
D1
100
AcDbText
 10
246.2818327343441
 20
35.23381172617067
 30
0.0
 40
1.5
  1

  7
BORDER
100
AcDbAttributeDefinition
  3
Surface Finish
  2
SF
 70
     0
  0
ATTDEF
  5
4DF
330
4C2
100
AcDbEntity
  8
D1
100
AcDbText
 10
242.5763354688528
 20
21.4226622308504
 30
0.0
 40
2.0
  1

100
AcDbAttributeDefinition
  3
Material
  2
MT
 70
     0
  0
ATTDEF
  5
4E0
330
4C2
100
AcDbEntity
  8
D1
100
AcDbText
 10
229.2073162257725
 20
14.05115779995844
 30
0.0
 40
2.0
  1

  7
BORDER
100
AcDbAttributeDefinition
  3
Date
  2
DATE
 70
     0
  0
ATTDEF
  5
4E1
330
4C2
100
AcDbEntity
  8
D1
100
AcDbText
 10
249.3259319417989
 20
13.97647094597211
 30
0.0
 40
2.0
  1

  7
BORDER
 72
     1
 11
249.3259319417989
 21
13.97647094597211
 31
0.0
100
AcDbAttributeDefinition
  3
Revision
  2
REV
 70
     0
  0
ATTDEF
  5
4E2
330
4C2
100
AcDbEntity
  8
D1
100
AcDbText
 10
253.4394209508604
 20
14.05115779995846
 30
0.0
 40
2.0
  1
A3
  7
BORDER
100
AcDbAttributeDefinition
  3
Drawawing Sheet Size
  2
SIZE
 70
     0
  0
ATTDEF
  5
4E3
330
4C2
100
AcDbEntity
  8
D1
100
AcDbText
 10
267.2007609388669
 20
13.90170404179822
 30
0.0
 40
2.0
  1

  7
BORDER
100
AcDbAttributeDefinition
  3
Sheet x of y
  2
SHT
 70
     0
  0
ATTDEF
  5
4E4
330
4C2
100
AcDbEntity
  8
D1
100
AcDbText
 10
289.8621429752233
 20
13.90170404179822
 30
0.0
 40
2.0
  1

  7
BORDER
100
AcDbAttributeDefinition
  3
Scale
  2
SCL
 70
     0
  0
ATTDEF
  5
4E5
330
4C2
100
AcDbEntity
  8
D1
100
AcDbText
 10
230.4039544855909
 20
6.724721642125365
 30
0.0
 40
2.0
  1

  7
BORDER
100
AcDbAttributeDefinition
  3
Drawing number
  2
DRG-NO.
 70
     0
  0
ATTDEF
  5
4E6
330
4C2
100
AcDbEntity
  8
D1
100
AcDbText
 10
264.6579946185369
 20
6.724721642125365
 30
0.0
 40
2.0
  1

  7
BORDER
100
AcDbAttributeDefinition
  3
Part number
  2
PRT-NO.
 70
     0
  0
INSERT
  5
4E7
330
4C2
100
AcDbEntity
  8
D1
100
AcDbBlockReference
  2
THOR_COMPANY_LOGO
 10
230.154158370577
 20
54.22501307663118
 30
0.0
  0
LINE
  5
4E8
330
4C2
100
AcDbEntity
  8
DEFPOINTS
100
AcDbLine
 10
0.0
 20
210.0091300174625
 30
0.0
 11
0.0
 21
219.1413401744449
 31
0.0
  0
LINE
  5
4E9
330
4C2
100
AcDbEntity
  8
DEFPOINTS
100
AcDbLine
 10
9.132210156982523
 20
219.1413401744449
 30
0.0
 11
0.0
 21
219.1413401744449
 31
0.0
  0
LINE
  5
4EA
330
4C2
100
AcDbEntity
  8
DEFPOINTS
100
AcDbLine
 10
314.2644203139648
 20
219.1413401744449
 30
0.0
 11
305.1322101569825
 21
219.1413401744449
 31
0.0
  0
LINE
  5
4EB
330
4C2
100
AcDbEntity
  8
DEFPOINTS
100
AcDbLine
 10
314.2644203139648
 20
210.0091300174625
 30
0.0
 11
314.2644203139648
 21
219.1413401744449
 31
0.0
  0
LINE
  5
4EC
330
4C2
100
AcDbEntity
  8
DEFPOINTS
100
AcDbLine
 10
9.132210156982523
 20
0.0
 30
0.0
 11
0.0
 21
0.0
 31
0.0
  0
LINE
  5
4ED
330
4C2
100
AcDbEntity
  8
DEFPOINTS
100
AcDbLine
 10
0.0
 20
9.132210156982546
 30
0.0
 11
0.0
 21
0.0
 31
0.0
  0
LINE
  5
4EE
330
4C2
100
AcDbEntity
  8
DEFPOINTS
100
AcDbLine
 10
314.2644203139648
 20
9.132210156982546
 30
0.0
 11
314.2644203139648
 21
0.0
 31
0.0
  0
LINE
  5
4EF
330
4C2
100
AcDbEntity
  8
DEFPOINTS
100
AcDbLine
 10
314.2644203139648
 20
0.0
 30
0.0
 11
305.1322101569825
 21
0.0
 31
0.0
  0
LINE
  5
4F0
330
4C2
100
AcDbEntity
  8
BORDER
100
AcDbLine
 10
309.1322101569825
 20
214.0091300174626
 30
0.0
 11
5.132210156982536
 21
214.0091300174626
 31
0.0
  0
LINE
  5
4F1
330
4C2
100
AcDbEntity
  8
BORDER
100
AcDbLine
 10
5.132210156982536
 20
214.0091300174626
 30
0.0
 11
5.132210156982536
 21
5.132210156982563
 31
0.0
  0
LINE
  5
4F2
330
4C2
100
AcDbEntity
  8
BORDER
100
AcDbLine
 10
5.132210156982536
 20
5.132210156982563
 30
0.0
 11
309.1322101569825
 21
5.132210156982563
 31
0.0
  0
LINE
  5
4F3
330
4C2
100
AcDbEntity
  8
BORDER
100
AcDbLine
 10
309.1322101569825
 20
5.132210156982563
 30
0.0
 11
309.1322101569825
 21
214.0091300174626
 31
0.0
  0
LINE
  5
4F4
330
4C2
100
AcDbEntity
  8
BORDER
100
AcDbLine
 10
309.1322101569825
 20
61.27867506552171
 30
0.0
 11
225.8851910415494
 21
61.27867506552171
 31
0.0
  0
LINE
  5
4F5
330
4C2
100
AcDbEntity
  8
BORDER
100
AcDbLine
 10
225.8851910415494
 20
61.27867506552171
 30
0.0
 11
225.8851910415494
 21
5.132210156982592
 31
0.0
  0
LINE
  5
4F6
330
4C2
100
AcDbEntity
  8
BORDER
100
AcDbLine
 10
309.1322101569825
 20
52.27867506552175
 30
0.0
 11
225.8851910415494
 21
52.27867506552172
 31
0.0
  0
LINE
  5
4F7
330
4C2
100
AcDbEntity
  8
BORDER
100
AcDbLine
 10
309.1322101569825
 20
45.27867506552172
 30
0.0
 11
225.8851910415494
 21
45.27867506552172
 31
0.0
  0
LINE
  5
4F8
330
4C2
100
AcDbEntity
  8
BORDER
100
AcDbLine
 10
309.1322101569825
 20
38.07867506552171
 30
0.0
 11
225.8851910415494
 21
38.07867506552171
 31
0.0
  0
LINE
  5
4F9
330
4C2
100
AcDbEntity
  8
BORDER
100
AcDbLine
 10
309.1322101569825
 20
34.07867506552171
 30
0.0
 11
225.8851910415494
 21
34.07867506552171
 31
0.0
  0
LINE
  5
4FA
330
4C2
100
AcDbEntity
  8
BORDER
100
AcDbLine
 10
251.860098199897
 20
34.07867506552171
 30
0.0
 11
251.860098199897
 21
26.96755688370352
 31
0.0
  0
LINE
  5
4FB
330
4C2
100
AcDbEntity
  8
BORDER
100
AcDbLine
 10
272.3398254726242
 20
34.07867506552171
 30
0.0
 11
272.3398254726242
 21
26.96755688370352
 31
0.0
  0
LINE
  5
4FC
330
4C2
100
AcDbEntity
  8
BORDER
100
AcDbLine
 10
309.1322101569825
 20
26.96755688370352
 30
0.0
 11
225.8851910415494
 21
26.96755688370352
 31
0.0
  0
LINE
  5
4FD
330
4C2
100
AcDbEntity
  8
BORDER
100
AcDbLine
 10
245.8150981998968
 20
19.81840191352356
 30
0.0
 11
245.8150981998968
 21
12.70728373170538
 31
0.0
  0
LINE
  5
4FE
330
4C2
100
AcDbEntity
  8
BORDER
100
AcDbLine
 10
252.7258526944418
 20
19.81840191352356
 30
0.0
 11
252.7258526944418
 21
12.70728373170538
 31
0.0
  0
LINE
  5
4FF
330
4C2
100
AcDbEntity
  8
BORDER
100
AcDbLine
 10
260.759629044304
 20
19.81840191352356
 30
0.0
 11
260.759629044304
 21
5.132210156982563
 31
0.0
  0
LINE
  5
500
330
4C2
100
AcDbEntity
  8
BORDER
100
AcDbLine
 10
281.8826717359846
 20
19.81840191352356
 30
0.0
 11
281.8826717359846
 21
12.70728373170538
 31
0.0
  0
LINE
  5
501
330
4C2
100
AcDbEntity
  8
D1
100
AcDbLine
 10
52.72893070710802
 20
10.24954853684187
 30
0.0
 11
141.080721299104
 21
10.24954853684187
 31
0.0
  0
TEXT
  5
502
330
4C2
100
AcDbEntity
  8
D1
100
AcDbText
 10
52.6563846303982
 20
11.10834331397028
 30
0.0
 40
2.747727272727273
  1
INFORMATION ONLY, NOT FOR MANUFACTURING
  7
BORDER
100
AcDbText
  0
LINE
  5
503
330
4C2
100
AcDbEntity
  8
D1
100
AcDbLine
 10
52.72893070710802
 20
8.878193425051392
 30
0.0
 11
141.080721299104
 21
8.878193425051392
 31
0.0
  0
TEXT
  5
504
330
4C2
100
AcDbEntity
  8
BORDER
100
AcDbText
 10
231.9392546628336
 20
39.58866805086575
 30
0.0
 40
1.5
  1
 IMPERIAL X.XXX"=+/-0.005 X.XX"+/-0.010"
  7
BORDER
100
AcDbText
  0
TEXT
  5
505
330
4C2
100
AcDbEntity
  8
BORDER
100
AcDbText
 10
227.2224541237636
 20
42.40103567463076
 30
0.0
 40
1.5
  1
TOL: METRIC X.XX=+/-0.1mm  X.X=+/-0.25mm  ANGULAR +/-30'
  7
BORDER
100
AcDbText
  0
ENDBLK
  5
507
330
4C2
100
AcDbEntity
  8
0
100
AcDbBlockEnd
  0
ENDSEC
  0
SECTION
  2
ENTITIES
  0
TEXT
  5
59
330
18
100
AcDbEntity
  8
TEXT
100
AcDbText
 10
197.1469985173258
 20
337.5534920173856
 30
0.0
 40
4.0
  1
PAA015
 41
0.9
 51
5.710593
 72
     1
 11
207.0041413744687
 21
339.5534920173856
 31
0.0
100
AcDbText
 73
     2
  0
TEXT
  5
5A
330
18
100
AcDbEntity
  8
TEXT
100
AcDbText
 10
197.1469985173258
 20
344.6664370173857
 30
0.0
 40
4.0
  1
PAA013
 41
0.9
 51
5.710593
 72
     1
 11
207.0041413744687
 21
346.6664370173857
 31
0.0
100
AcDbText
 73
     2
  0
TEXT
  5
5B
330
18
100
AcDbEntity
  8
TEXT
100
AcDbText
 10
197.9184270887544
 20
351.1517580173856
 30
0.0
 40
4.0
  1
PAA011
 41
0.9
 51
5.710593
 72
     1
 11
207.0041413744687
 21
353.1517580173856
 31
0.0
100
AcDbText
 73
     2
  0
TEXT
  5
5C
330
18
100
AcDbEntity
  8
TEXT
100
AcDbText
 10
196.8898556601829
 20
358.0555060173856
 30
0.0
 40
4.0
  1
PAA009
 41
0.9
 51
5.710593
 72
     1
 11
207.0041413744687
 21
360.0555060173856
 31
0.0
100
AcDbText
 73
     2
  0
TEXT
  5
5D
330
18
100
AcDbEntity
  8
TEXT
100
AcDbText
 10
196.8041413744687
 20
364.5408270173857
 30
0.0
 40
4.0
  1
PAA007
 41
0.9
 51
5.710593
 72
     1
 11
207.0041413744687
 21
366.5408270173857
 31
0.0
100
AcDbText
 73
     2
  0
TEXT
  5
5E
330
18
100
AcDbEntity
  8
TEXT
100
AcDbText
 10
317.0100412469857
 20
318.7821750173856
 30
0.0
 40
4.0
  1
PAA001
 41
0.9
 51
5.710593
 72
     1
 11
326.4386126755571
 21
320.7821750173856
 31
0.0
100
AcDbText
 73
     2
  0
TEXT
  5
5F
330
18
100
AcDbEntity
  8
TEXT
100
AcDbText
 10
552.98374240009
 20
318.7821750173856
 30
0.0
 40
4.0
  1
PAA005
 41
0.9
 51
5.710593
 72
     1
 11
563.1837424000901
 21
320.7821750173856
 31
0.0
100
AcDbText
 73
     2
  0
TEXT
  5
60
330
18
100
AcDbEntity
  8
TEXT
100
AcDbText
 10
432.3616597830731
 20
318.7821750173856
 30
0.0
 40
4.0
  1
PAA003
 41
0.9
 51
5.710593
 72
     1
 11
442.5616597830731
 21
320.7821750173856
 31
0.0
100
AcDbText
 73
     2
  0
TEXT
  5
61
330
18
100
AcDbEntity
  8
TEXT
100
AcDbText
 10
123.821795660183
 20
318.7821750173856
 30
0.0
 40
4.0
  1
PAA007-15
 41
0.9
 51
5.710593
 72
     1
 11
139.3360813744688
 21
320.7821750173856
 31
0.0
100
AcDbText
 73
     2
  0
LINE
  5
64
330
18
100
AcDbEntity
  8
1
  6
Continuous
 62
     7
100
AcDbLine
 10
79.20518337446878
 20
360.2585390173857
 30
0.0
 11
88.82145937446876
 21
360.2585390173857
 31
0.0
  0
LINE
  5
65
330
18
100
AcDbEntity
  8
1
  6
Continuous
 62
     7
100
AcDbLine
 10
79.20518337446878
 20
355.8585450173856
 30
0.0
 11
88.82145937446876
 21
355.8585450173856
 31
0.0
  0
LINE
  5
66
330
18
100
AcDbEntity
  8
1
  6
Continuous
 62
     7
100
AcDbLine
 10
314.0116716755571
 20
360.2585390173857
 30
0.0
 11
324.0116716755571
 21
360.2585390173857
 31
0.0
  0
LINE
  5
67
330
18
100
AcDbEntity
  8
1
  6
Continuous
 62
     7
100
AcDbLine
 10
324.0116716755571
 20
355.8585450173856
 30
0.0
 11
314.0116716755571
 21
355.8585450173856
 31
0.0
  0
LINE
  5
68
330
18
100
AcDbEntity
  8
1
  6
Continuous
 62
     7
100
AcDbLine
 10
548.3536034000901
 20
360.2585390173857
 30
0.0
 11
558.3536034000903
 21
360.2585390173857
 31
0.0
  0
LINE
  5
69
330
18
100
AcDbEntity
  8
1
  6
Continuous
 62
     7
100
AcDbLine
 10
558.3536034000903
 20
355.8585450173856
 30
0.0
 11
548.3536034000901
 21
355.8585450173856
 31
0.0
  0
LINE
  5
6A
330
18
100
AcDbEntity
  8
1
  6
Continuous
 62
     7
100
AcDbLine
 10
421.0973347830731
 20
360.2585390173857
 30
0.0
 11
431.0973347830731
 21
360.2585390173857
 31
0.0
  0
LINE
  5
6B
330
18
100
AcDbEntity
  8
1
  6
Continuous
 62
     7
100
AcDbLine
 10
431.0973347830731
 20
355.8585450173856
 30
0.0
 11
421.0973347830731
 21
355.8585450173856
 31
0.0
  0
TEXT
  5
7E
330
18
100
AcDbEntity
  8
MD_DIMS
100
AcDbText
 10
460.3904354497396
 20
352.5689630173856
 30
0.0
 40
4.0
  1
%%c10
 50
90.0
 41
0.9
 51
5.710593
 11
461.7237687830729
 21
352.5689630173856
 31
0.0
100
AcDbText
 73
     1
  0
INSERT
  5
7F
330
18
100
AcDbEntity
  8
MD_DIMS
100
AcDbBlockReference
  2
FUNV002
 10
443.097334783073
 20
348.0585580173856
 30
0.0
 50
180.0
  0
LINE
  5
80
330
18
100
AcDbEntity
  8
MD_DIMS
100
AcDbLine
 10
444.0876537830731
 20
348.0585580173856
 30
0.0
 11
462.905952783073
 21
348.0585580173856
 31
0.0
  0
INSERT
  5
81
330
18
100
AcDbEntity
  8
MD_DIMS
100
AcDbBlockReference
  2
FUNV001
 10
461.9156327830729
 20
348.0585580173856
 30
0.0
  0
INSERT
  5
82
330
18
100
AcDbEntity
  8
MD_DIMS
100
AcDbBlockReference
  2
FUNV002
 10
443.097334783073
 20
368.0585580173856
 30
0.0
 50
180.0
  0
LINE
  5
83
330
18
100
AcDbEntity
  8
MD_DIMS
100
AcDbLine
 10
443.9117997830731
 20
368.0585580173856
 30
0.0
 11
462.7300977830731
 21
368.0585580173856
 31
0.0
  0
INSERT
  5
84
330
18
100
AcDbEntity
  8
MD_DIMS
100
AcDbBlockReference
  2
FUNV001
 10
461.9156327830729
 20
368.0585580173856
 30
0.0
  0
LINE
  5
85
330
18
100
AcDbEntity
  8
1
  6
Continuous
 62
     7
100
AcDbLine
 10
461.9156327830729
 20
358.0105840173856
 30
0.0
 11
461.9156327830729
 21
348.0585580173856
 31
0.0
  0
INSERT
  5
86
330
18
100
AcDbEntity
  8
1
 62
     7
100
AcDbBlockReference
  2
FUNV015
 10
461.9156327830729
 20
348.0585580173856
 30
0.0
 50
270.0
  0
LINE
  5
87
330
18
100
AcDbEntity
  8
1
  6
Continuous
 62
     7
100
AcDbLine
 10
461.9156327830729
 20
357.9146670173857
 30
0.0
 11
461.9156327830729
 21
368.0585580173856
 31
0.0
  0
INSERT
  5
88
330
18
100
AcDbEntity
  8
1
 62
     7
100
AcDbBlockReference
  2
FUNV015
 10
461.9156327830729
 20
368.0585580173856
 30
0.0
 50
90.0
  0
TEXT
  5
89
330
18
100
AcDbEntity
  8
TEXT
100
AcDbText
 10
122.4878553744687
 20
326.5003150173857
 30
0.0
 40
4.0
  1
TAPPED END
 41
0.9
 51
5.710593
 72
     1
 11
139.2878553744687
 21
328.5003150173857
 31
0.0
100
AcDbText
 73
     2
  0
TEXT
  5
8A
330
18
100
AcDbEntity
  8
TEXT
100
AcDbText
 10
131.3834752316114
 20
364.4928840173856
 30
0.0
 40
4.0
  1
M4 X 6 DEEP
 41
0.9
 51
5.710593
 72
     1
 11
149.7263323744685
 21
366.4928840173856
 31
0.0
100
AcDbText
 73
     2
  0
TEXT
  5
8B
330
18
100
AcDbEntity
  8
TEXT
100
AcDbText
 10
131.3834752316114
 20
357.9696290173857
 30
0.0
 40
4.0
  1
M6 X 6 DEEP
 41
0.9
 51
5.710593
 72
     1
 11
149.7263323744685
 21
359.9696290173857
 31
0.0
100
AcDbText
 73
     2
  0
TEXT
  5
8C
330
18
100
AcDbEntity
  8
TEXT
100
AcDbText
 10
131.3834752316114
 20
351.0626470173856
 30
0.0
 40
4.0
  1
M8 X 6 DEEP
 41
0.9
 51
5.710593
 72
     1
 11
149.7263323744685
 21
353.0626470173857
 31
0.0
100
AcDbText
 73
     2
  0
TEXT
  5
8D
330
18
100
AcDbEntity
  8
TEXT
100
AcDbText
 10
130.6792860887545
 20
344.3648630173857
 30
0.0
 40
4.0
  1
8-32 UNC X 6 DP
 41
0.9
 51
5.710593
 72
     1
 11
156.5650003744688
 21
346.3648630173857
 31
0.0
100
AcDbText
 73
     2
  0
TEXT
  5
8E
330
18
100
AcDbEntity
  8
TEXT
100
AcDbText
 10
129.7853332316114
 20
337.4578950173857
 30
0.0
 40
4.0
  1
1/4-20 UNC X 6 DP
 41
0.9
 51
5.710593
 72
     1
 11
158.9281903744685
 21
339.4578950173857
 31
0.0
100
AcDbText
 73
     2
  0
TEXT
  5
8F
330
18
100
AcDbEntity
  8
TEXT
100
AcDbText
 10
312.6173248184142
 20
326.5120640173857
 30
0.0
 40
4.0
  1
PLAIN END
 41
0.9
 51
5.710593
 72
     1
 11
326.6744676755571
 21
328.5120640173857
 31
0.0
100
AcDbText
 73
     2
  0
TEXT
  5
90
330
18
100
AcDbEntity
  8
TEXT
100
AcDbText
 10
543.03733140009
 20
326.5120640173857
 30
0.0
 40
4.0
  1
DRIVE BALL END
 41
0.9
 51
5.710593
 72
     1
 11
565.23733140009
 21
328.5120640173857
 31
0.0
100
AcDbText
 73
     2
  0
TEXT
  5
91
330
18
100
AcDbEntity
  8
TEXT
100
AcDbText
 10
420.6463416402158
 20
326.3202000173856
 30
0.0
 40
4.0
  1
MAGNET END
 41
0.9
 51
5.710593
 72
     1
 11
437.7891987830729
 21
328.3202000173856
 31
0.0
100
AcDbText
 73
     2
  0
LINE
  5
92
330
18
100
AcDbEntity
  8
1
  6
HIDDEN
 62
     3
100
AcDbLine
 10
106.8214553744687
 20
364.0585580173856
 30
0.0
 11
94.82145137446876
 21
364.0585580173856
 31
0.0
  0
LINE
  5
93
330
18
100
AcDbEntity
  8
1
  6
HIDDEN
 62
     3
100
AcDbLine
 10
94.82145137446876
 20
364.0585580173856
 30
0.0
 11
94.82145137446876
 21
352.0585580173857
 31
0.0
  0
LINE
  5
94
330
18
100
AcDbEntity
  8
1
  6
HIDDEN
 62
     3
100
AcDbLine
 10
94.82145137446876
 20
352.0585580173857
 30
0.0
 11
106.8214553744687
 21
352.0585580173857
 31
0.0
  0
ARC
  5
95
330
18
100
AcDbEntity
  8
1
  6
Continuous
 62
     4
100
AcDbCircle
 10
566.3536034000903
 20
358.0585580173856
 30
0.0
 40
5.000003999999997
100
AcDbArc
 50
293.576477
 51
66.42004399999999
  0
INSERT
  5
96
330
18
100
AcDbEntity
  8
MD_DIMS
100
AcDbBlockReference
  2
FUNV002
 10
330.0116716755571
 20
345.7795050173857
 30
0.0
 50
90.0
  0
LINE
  5
97
330
18
100
AcDbEntity
  8
MD_DIMS
100
AcDbLine
 10
330.0116716755571
 20
345.7795050173857
 30
0.0
 11
330.0116716755571
 21
336.9539280173857
 31
0.0
  0
INSERT
  5
98
330
18
100
AcDbEntity
  8
MD_DIMS
100
AcDbBlockReference
  2
FUNV001
 10
330.0116716755571
 20
336.9539280173857
 30
0.0
 50
270.0
  0
INSERT
  5
99
330
18
100
AcDbEntity
  8
MD_DIMS
100
AcDbBlockReference
  2
FUNV002
 10
324.0116716755571
 20
345.3957770173857
 30
0.0
 50
90.0
  0
LINE
  5
9A
330
18
100
AcDbEntity
  8
MD_DIMS
100
AcDbLine
 10
324.0116716755571
 20
345.3957770173857
 30
0.0
 11
324.0116716755571
 21
336.9539280173857
 31
0.0
  0
INSERT
  5
9B
330
18
100
AcDbEntity
  8
MD_DIMS
100
AcDbBlockReference
  2
FUNV001
 10
324.0116716755571
 20
336.9539280173857
 30
0.0
 50
270.0
  0
TEXT
  5
9C
330
18
100
AcDbEntity
  8
MD_DIMS
100
AcDbText
 10
311.8354776755571
 20
338.287261350719
 30
0.0
 40
4.0
  1
3
 41
0.9
 51
5.710593
 11
311.8354776755571
 21
336.9539280173857
 31
0.0
100
AcDbText
 73
     1
  0
LINE
  5
9D
330
18
100
AcDbEntity
  8
MD_DIMS
100
AcDbLine
 10
310.1661366755571
 20
336.9539280173857
 30
0.0
 11
324.0116716755571
 21
336.9539280173857
 31
0.0
  0
INSERT
  5
9E
330
18
100
AcDbEntity
  8
MD_DIMS
100
AcDbBlockReference
  2
FUNV015
 10
324.0116716755571
 20
336.9539280173857
 30
0.0
  0
INSERT
  5
9F
330
18
100
AcDbEntity
  8
MD_DIMS
100
AcDbBlockReference
  2
FUNV014
 10
330.0116716755571
 20
336.9539280173857
 30
0.0
  0
LINE
  5
A0
330
18
100
AcDbEntity
  8
MD_DIMS
100
AcDbLine
 10
330.0116716755571
 20
336.9539280173857
 30
0.0
 11
337.0116716755571
 21
336.9539280173857
 31
0.0
  0
INSERT
  5
A1
330
18
100
AcDbEntity
  8
MD_DIMS
100
AcDbBlockReference
  2
FUNV002
 10
443.097334783073
 20
347.0585580173856
 30
0.0
 50
90.0
  0
LINE
  5
A2
330
18
100
AcDbEntity
  8
MD_DIMS
100
AcDbLine
 10
443.097334783073
 20
347.0585580173856
 30
0.0
 11
443.097334783073
 21
336.5261020173856
 31
0.0
  0
INSERT
  5
A3
330
18
100
AcDbEntity
  8
MD_DIMS
100
AcDbBlockReference
  2
FUNV001
 10
443.097334783073
 20
337.3376560173856
 30
0.0
 50
270.0
  0
INSERT
  5
A4
330
18
100
AcDbEntity
  8
MD_DIMS
100
AcDbBlockReference
  2
FUNV002
 10
431.0973347830731
 20
346.1632020173857
 30
0.0
 50
90.0
  0
LINE
  5
A5
330
18
100
AcDbEntity
  8
MD_DIMS
100
AcDbLine
 10
431.0973347830731
 20
346.1632020173857
 30
0.0
 11
431.0973347830731
 21
336.3503150173857
 31
0.0
  0
INSERT
  5
A6
330
18
100
AcDbEntity
  8
MD_DIMS
100
AcDbBlockReference
  2
FUNV001
 10
431.0973347830731
 20
337.3376560173856
 30
0.0
 50
270.0
  0
TEXT
  5
A7
330
18
100
AcDbEntity
  8
MD_DIMS
100
AcDbText
 10
420.8397347830731
 20
338.6709893507189
 30
0.0
 40
4.0
  1
6
 41
0.9
 51
5.710593
 11
420.8397347830731
 21
337.3376560173856
 31
0.0
100
AcDbText
 73
     1
  0
LINE
  5
A8
330
18
100
AcDbEntity
  8
MD_DIMS
100
AcDbLine
 10
419.4424887830731
 20
337.3376560173856
 30
0.0
 11
431.0973347830731
 21
337.3376560173856
 31
0.0
  0
INSERT
  5
A9
330
18
100
AcDbEntity
  8
MD_DIMS
100
AcDbBlockReference
  2
FUNV015
 10
431.0973347830731
 20
337.3376560173856
 30
0.0
  0
INSERT
  5
AA
330
18
100
AcDbEntity
  8
MD_DIMS
100
AcDbBlockReference
  2
FUNV014
 10
443.097334783073
 20
337.3376560173856
 30
0.0
  0
LINE
  5
AB
330
18
100
AcDbEntity
  8
MD_DIMS
100
AcDbLine
 10
443.097334783073
 20
337.3376560173856
 30
0.0
 11
450.0973347830731
 21
337.3376560173856
 31
0.0
  0
INSERT
  5
AF
330
18
100
AcDbEntity
  8
MD_DIMS
100
AcDbBlockReference
  2
FUNV002
 10
571.3536034000902
 20
354.6050660173857
 30
0.0
 50
90.0
  0
LINE
  5
B0
330
18
100
AcDbEntity
  8
MD_DIMS
100
AcDbLine
 10
571.3536034000902
 20
354.6050660173857
 30
0.0
 11
571.3536034000902
 21
336.3503150173857
 31
0.0
  0
INSERT
  5
B1
330
18
100
AcDbEntity
  8
MD_DIMS
100
AcDbBlockReference
  2
FUNV001
 10
571.3536034000902
 20
337.3376560173856
 30
0.0
 50
270.0
  0
INSERT
  5
B2
330
18
100
AcDbEntity
  8
MD_DIMS
100
AcDbBlockReference
  2
FUNV002
 10
558.3536034000903
 20
346.1632020173857
 30
0.0
 50
90.0
  0
LINE
  5
B3
330
18
100
AcDbEntity
  8
MD_DIMS
100
AcDbLine
 10
558.3536034000903
 20
346.1632020173857
 30
0.0
 11
558.3536034000903
 21
336.7018900173856
 31
0.0
  0
INSERT
  5
B4
330
18
100
AcDbEntity
  8
MD_DIMS
100
AcDbBlockReference
  2
FUNV001
 10
558.3536034000903
 20
337.3376560173856
 30
0.0
 50
270.0
  0
TEXT
  5
B5
330
18
100
AcDbEntity
  8
MD_DIMS
100
AcDbText
 10
540.4215964000901
 20
338.6709893507189
 30
0.0
 40
4.0
  1
6.5
 41
0.9
 51
5.710593
 11
540.4215964000901
 21
337.3376560173856
 31
0.0
100
AcDbText
 73
     1
  0
LINE
  5
B6
330
18
100
AcDbEntity
  8
MD_DIMS
100
AcDbLine
 10
539.0895964000903
 20
337.3376560173856
 30
0.0
 11
558.3536034000903
 21
337.3376560173856
 31
0.0
  0
INSERT
  5
B7
330
18
100
AcDbEntity
  8
MD_DIMS
100
AcDbBlockReference
  2
FUNV015
 10
558.3536034000903
 20
337.3376560173856
 30
0.0
  0
INSERT
  5
B8
330
18
100
AcDbEntity
  8
MD_DIMS
100
AcDbBlockReference
  2
FUNV014
 10
571.3536034000902
 20
337.3376560173856
 30
0.0
  0
LINE
  5
B9
330
18
100
AcDbEntity
  8
MD_DIMS
100
AcDbLine
 10
571.3536034000902
 20
337.3376560173856
 30
0.0
 11
578.3536034000904
 21
337.3376560173856
 31
0.0
  0
LINE
  5
BA
330
18
100
AcDbEntity
  8
1
  6
Continuous
 62
     4
100
AcDbLine
 10
437.0973037830729
 20
368.0585580173856
 30
0.0
 11
443.097334783073
 21
368.0585580173856
 31
0.0
  0
LINE
  5
BB
330
18
100
AcDbEntity
  8
1
  6
Continuous
 62
     4
100
AcDbLine
 10
443.097334783073
 20
368.0585580173856
 30
0.0
 11
443.097334783073
 21
348.0585580173856
 31
0.0
  0
LINE
  5
BC
330
18
100
AcDbEntity
  8
1
  6
Continuous
 62
     4
100
AcDbLine
 10
443.097334783073
 20
348.0585580173856
 30
0.0
 11
437.0973037830729
 21
348.0585580173856
 31
0.0
  0
LINE
  5
BD
330
18
100
AcDbEntity
  8
1
  6
CENTER
 62
     2
100
AcDbLine
 10
76.03948837446876
 20
358.0585580173856
 30
0.0
 11
110.7662183744687
 21
358.0585580173856
 31
0.0
  0
LINE
  5
BE
330
18
100
AcDbEntity
  8
1
  6
Continuous
 62
     4
100
AcDbLine
 10
106.8214553744687
 20
347.0585580173856
 30
0.0
 11
106.8214553744687
 21
369.0585580173856
 31
0.0
  0
LINE
  5
BF
330
18
100
AcDbEntity
  8
1
  6
Continuous
 62
     4
100
AcDbLine
 10
106.8214553744687
 20
369.0585580173856
 30
0.0
 11
88.82145937446876
 21
369.0585580173856
 31
0.0
  0
LINE
  5
C0
330
18
100
AcDbEntity
  8
1
  6
Continuous
 62
     4
100
AcDbLine
 10
88.82145937446876
 20
369.0585580173856
 30
0.0
 11
88.82145937446876
 21
347.0585580173856
 31
0.0
  0
LINE
  5
C1
330
18
100
AcDbEntity
  8
1
  6
Continuous
 62
     4
100
AcDbLine
 10
88.82145937446876
 20
347.0585580173856
 30
0.0
 11
106.8214553744687
 21
347.0585580173856
 31
0.0
  0
LINE
  5
C2
330
18
100
AcDbEntity
  8
1
  6
Continuous
 62
     4
100
AcDbLine
 10
88.82145937446876
 20
361.5585580173856
 30
0.0
 11
79.20518337446878
 21
361.5585580173856
 31
0.0
  0
LINE
  5
C3
330
18
100
AcDbEntity
  8
1
  6
Continuous
 62
     4
100
AcDbLine
 10
79.20518337446878
 20
361.5585580173856
 30
0.0
 11
79.20518337446878
 21
354.5585580173856
 31
0.0
  0
LINE
  5
C4
330
18
100
AcDbEntity
  8
1
  6
Continuous
 62
     4
100
AcDbLine
 10
79.20518337446878
 20
354.5585580173856
 30
0.0
 11
88.82145937446876
 21
354.5585580173856
 31
0.0
  0
LINE
  5
C5
330
18
100
AcDbEntity
  8
1
  6
CENTER
 62
     2
100
AcDbLine
 10
311.2297046755571
 20
358.0585580173856
 30
0.0
 11
334.0610946755571
 21
358.0585580173856
 31
0.0
  0
LINE
  5
C6
330
18
100
AcDbEntity
  8
1
  6
Continuous
 62
     4
100
AcDbLine
 10
330.0116716755571
 20
369.0585580173856
 30
0.0
 11
330.0116716755571
 21
347.0585580173856
 31
0.0
  0
LINE
  5
C7
330
18
100
AcDbEntity
  8
1
  6
Continuous
 62
     4
100
AcDbLine
 10
330.0116716755571
 20
347.0585580173856
 30
0.0
 11
324.0116716755571
 21
347.0585580173856
 31
0.0
  0
LINE
  5
C8
330
18
100
AcDbEntity
  8
1
  6
Continuous
 62
     4
100
AcDbLine
 10
324.0116716755571
 20
347.0585580173856
 30
0.0
 11
324.0116716755571
 21
369.0585580173856
 31
0.0
  0
LINE
  5
C9
330
18
100
AcDbEntity
  8
1
  6
Continuous
 62
     4
100
AcDbLine
 10
324.0116716755571
 20
369.0585580173856
 30
0.0
 11
330.0116716755571
 21
369.0585580173856
 31
0.0
  0
LINE
  5
CA
330
18
100
AcDbEntity
  8
1
  6
Continuous
 62
     4
100
AcDbLine
 10
324.0116716755571
 20
361.5585580173856
 30
0.0
 11
314.0116716755571
 21
361.5585580173856
 31
0.0
  0
LINE
  5
CB
330
18
100
AcDbEntity
  8
1
  6
Continuous
 62
     4
100
AcDbLine
 10
314.0116716755571
 20
361.5585580173856
 30
0.0
 11
314.0116716755571
 21
354.5585580173856
 31
0.0
  0
LINE
  5
CC
330
18
100
AcDbEntity
  8
1
  6
Continuous
 62
     4
100
AcDbLine
 10
314.0116716755571
 20
354.5585580173856
 30
0.0
 11
324.0116716755571
 21
354.5585580173856
 31
0.0
  0
LINE
  5
CD
330
18
100
AcDbEntity
  8
1
  6
Continuous
 62
     4
100
AcDbLine
 10
568.3536034000901
 20
347.0585580173856
 30
0.0
 11
558.3536034000903
 21
347.0585580173856
 31
0.0
  0
LINE
  5
CE
330
18
100
AcDbEntity
  8
1
  6
Continuous
 62
     4
100
AcDbLine
 10
558.3536034000903
 20
347.0585580173856
 30
0.0
 11
558.3536034000903
 21
369.0585580173856
 31
0.0
  0
LINE
  5
CF
330
18
100
AcDbEntity
  8
1
  6
Continuous
 62
     4
100
AcDbLine
 10
558.3536034000903
 20
369.0585580173856
 30
0.0
 11
568.3536034000901
 21
369.0585580173856
 31
0.0
  0
LINE
  5
D0
330
18
100
AcDbEntity
  8
1
  6
Continuous
 62
     4
100
AcDbLine
 10
568.3536034000901
 20
369.0585580173856
 30
0.0
 11
568.3536034000901
 21
347.0585580173856
 31
0.0
  0
LINE
  5
D1
330
18
100
AcDbEntity
  8
1
  6
Continuous
 62
     4
100
AcDbLine
 10
558.3536034000903
 20
361.5585580173856
 30
0.0
 11
548.3536034000901
 21
361.5585580173856
 31
0.0
  0
LINE
  5
D2
330
18
100
AcDbEntity
  8
1
  6
Continuous
 62
     4
100
AcDbLine
 10
548.3536034000901
 20
361.5585580173856
 30
0.0
 11
548.3536034000901
 21
354.5585580173856
 31
0.0
  0
LINE
  5
D3
330
18
100
AcDbEntity
  8
1
  6
Continuous
 62
     4
100
AcDbLine
 10
548.3536034000901
 20
354.5585580173856
 30
0.0
 11
558.3536034000903
 21
354.5585580173856
 31
0.0
  0
LINE
  5
D4
330
18
100
AcDbEntity
  8
1
  6
Continuous
 62
     4
100
AcDbLine
 10
437.0973347830729
 20
347.0585580173856
 30
0.0
 11
431.0973347830731
 21
347.0585580173856
 31
0.0
  0
LINE
  5
D5
330
18
100
AcDbEntity
  8
1
  6
Continuous
 62
     4
100
AcDbLine
 10
431.0973347830731
 20
347.0585580173856
 30
0.0
 11
431.0973347830731
 21
369.0585580173856
 31
0.0
  0
LINE
  5
D6
330
18
100
AcDbEntity
  8
1
  6
Continuous
 62
     4
100
AcDbLine
 10
431.0973347830731
 20
369.0585580173856
 30
0.0
 11
437.0973037830729
 21
369.0585580173856
 31
0.0
  0
LINE
  5
D7
330
18
100
AcDbEntity
  8
1
  6
Continuous
 62
     4
100
AcDbLine
 10
437.0973037830729
 20
369.0585580173856
 30
0.0
 11
437.0973347830729
 21
347.0585580173856
 31
0.0
  0
LINE
  5
D8
330
18
100
AcDbEntity
  8
1
  6
Continuous
 62
     4
100
AcDbLine
 10
431.0973347830731
 20
361.5585580173856
 30
0.0
 11
421.0973347830731
 21
361.5585580173856
 31
0.0
  0
LINE
  5
D9
330
18
100
AcDbEntity
  8
1
  6
Continuous
 62
     4
100
AcDbLine
 10
421.0973347830731
 20
361.5585580173856
 30
0.0
 11
421.0973347830731
 21
354.5585580173856
 31
0.0
  0
LINE
  5
DA
330
18
100
AcDbEntity
  8
1
  6
Continuous
 62
     4
100
AcDbLine
 10
421.0973347830731
 20
354.5585580173856
 30
0.0
 11
431.0973347830731
 21
354.5585580173856
 31
0.0
  0
LINE
  5
DB
330
18
100
AcDbEntity
  8
1
  6
CENTER
 62
     2
100
AcDbLine
 10
416.6845237830729
 20
358.0585580173856
 30
0.0
 11
446.231062783073
 21
358.0585580173856
 31
0.0
  0
LINE
  5
DC
330
18
100
AcDbEntity
  8
1
  6
CENTER
 62
     2
100
AcDbLine
 10
545.09197640009
 20
358.0585580173856
 30
0.0
 11
575.7896694000901
 21
358.0585580173856
 31
0.0
  0
TEXT
  5
DD
330
18
100
AcDbEntity
  8
MD_DIMS
100
AcDbText
 10
118.7381150411353
 20
353.5835200173857
 30
0.0
 40
4.0
  1
%%c11
 50
90.0
 41
0.9
 51
5.710593
 11
120.0714483744687
 21
353.5835200173857
 31
0.0
100
AcDbText
 73
     1
  0
INSERT
  5
DE
330
18
100
AcDbEntity
  8
MD_DIMS
100
AcDbBlockReference
  2
FUNV002
 10
108.3679643744687
 20
347.0585580173856
 30
0.0
 50
180.0
  0
LINE
  5
DF
330
18
100
AcDbEntity
  8
MD_DIMS
100
AcDbLine
 10
108.3679643744687
 20
347.0585580173856
 30
0.0
 11
121.5722133744687
 21
347.0585580173856
 31
0.0
  0
INSERT
  5
E0
330
18
100
AcDbEntity
  8
MD_DIMS
100
AcDbBlockReference
  2
FUNV001
 10
120.6470323744687
 20
347.0585580173856
 30
0.0
  0
INSERT
  5
E1
330
18
100
AcDbEntity
  8
MD_DIMS
100
AcDbBlockReference
  2
FUNV002
 10
108.3679643744687
 20
369.0585580173856
 30
0.0
 50
180.0
  0
LINE
  5
E2
330
18
100
AcDbEntity
  8
MD_DIMS
100
AcDbLine
 10
108.3679643744687
 20
369.0585580173856
 30
0.0
 11
121.2565313744687
 21
369.0585580173856
 31
0.0
  0
INSERT
  5
E3
330
18
100
AcDbEntity
  8
MD_DIMS
100
AcDbBlockReference
  2
FUNV001
 10
120.6470323744687
 20
369.0585580173856
 30
0.0
  0
LINE
  5
E4
330
18
100
AcDbEntity
  8
1
  6
Continuous
 62
     7
100
AcDbLine
 10
120.6470323744687
 20
358.0105840173856
 30
0.0
 11
120.6470323744687
 21
347.0585580173856
 31
0.0
  0
INSERT
  5
E5
330
18
100
AcDbEntity
  8
1
 62
     7
100
AcDbBlockReference
  2
FUNV015
 10
120.6470323744687
 20
347.0585580173856
 30
0.0
 50
270.0
  0
LINE
  5
E6
330
18
100
AcDbEntity
  8
1
  6
Continuous
 62
     7
100
AcDbLine
 10
120.6470323744687
 20
358.1065310173856
 30
0.0
 11
120.6470323744687
 21
369.0585580173856
 31
0.0
  0
INSERT
  5
E7
330
18
100
AcDbEntity
  8
1
 62
     7
100
AcDbBlockReference
  2
FUNV015
 10
120.6470323744687
 20
369.0585580173856
 30
0.0
 50
90.0
  0
INSERT
  5
EC
330
18
100
AcDbEntity
  8
MD_DIMS
100
AcDbBlockReference
  2
FUNV002
 10
106.8214553744687
 20
346.1632020173857
 30
0.0
 50
90.0
  0
LINE
  5
ED
330
18
100
AcDbEntity
  8
MD_DIMS
100
AcDbLine
 10
106.8214553744687
 20
346.1632020173857
 30
0.0
 11
106.8214553744687
 21
335.9591240173856
 31
0.0
  0
INSERT
  5
EE
330
18
100
AcDbEntity
  8
MD_DIMS
100
AcDbBlockReference
  2
FUNV001
 10
106.8214553744687
 20
336.9539280173857
 30
0.0
 50
270.0
  0
INSERT
  5
EF
330
18
100
AcDbEntity
  8
MD_DIMS
100
AcDbBlockReference
  2
FUNV002
 10
88.82145937446876
 20
345.7795050173857
 30
0.0
 50
90.0
  0
LINE
  5
F0
330
18
100
AcDbEntity
  8
MD_DIMS
100
AcDbLine
 10
88.82145937446876
 20
345.7795050173857
 30
0.0
 11
88.82145937446876
 21
336.3377980173857
 31
0.0
  0
INSERT
  5
F1
330
18
100
AcDbEntity
  8
MD_DIMS
100
AcDbBlockReference
  2
FUNV001
 10
88.82145937446876
 20
336.9539280173857
 30
0.0
 50
270.0
  0
TEXT
  5
F2
330
18
100
AcDbEntity
  8
MD_DIMS
100
AcDbText
 10
79.33131537446874
 20
338.287261350719
 30
0.0
 40
4.0
  1
9
 41
0.9
 51
5.710593
 11
79.33131537446874
 21
336.9539280173857
 31
0.0
100
AcDbText
 73
     1
  0
LINE
  5
F3
330
18
100
AcDbEntity
  8
MD_DIMS
100
AcDbLine
 10
78.10372337446874
 20
336.9539280173857
 30
0.0
 11
88.82145937446876
 21
336.9539280173857
 31
0.0
  0
INSERT
  5
F4
330
18
100
AcDbEntity
  8
MD_DIMS
100
AcDbBlockReference
  2
FUNV015
 10
88.82145937446876
 20
336.9539280173857
 30
0.0
  0
INSERT
  5
F5
330
18
100
AcDbEntity
  8
MD_DIMS
100
AcDbBlockReference
  2
FUNV014
 10
106.8214553744687
 20
336.9539280173857
 30
0.0
  0
LINE
  5
F6
330
18
100
AcDbEntity
  8
MD_DIMS
100
AcDbLine
 10
106.8214553744687
 20
336.9539280173857
 30
0.0
 11
113.8214553744687
 21
336.9539280173857
 31
0.0
  0
TEXT
  5
14C
330
18
100
AcDbEntity
  8
TEXT
100
AcDbText
 10
172.7720280887543
 20
308.8078400173856
 30
0.0
 40
4.0
  1
OPTIONAL END FITTINGS
 41
0.9
 51
5.710593
 72
     1
 11
205.2577423744686
 21
310.8078400173856
 31
0.0
100
AcDbText
 73
     2
  0
TEXT
  5
14D
330
18
100
AcDbEntity
  8
TEXT
100
AcDbText
 10
256.4902036601828
 20
308.8533570173856
 30
0.0
 40
4.0
  1
ADD ON DIMENSIONS SHOWN FOR O/ALL LENGTH
 41
0.9
 51
5.710593
 72
     1
 11
324.2044893744686
 21
310.8533570173857
 31
0.0
100
AcDbText
 73
     2
  0
LINE
  5
14E
330
18
100
AcDbEntity
  8
1
  6
Continuous
 62
     7
100
AcDbLine
 10
618.264420313965
 20
305.8417300173856
 30
0.0
 11
10.26442031396504
 21
305.8417300173856
 31
0.0
  0
LINE
  5
14F
330
18
100
AcDbEntity
  8
1
  6
Continuous
 62
     7
100
AcDbLine
 10
10.26442031396507
 20
315.8417300173856
 30
0.0
 11
618.264420313965
 21
315.8417300173856
 31
0.0
  0
TEXT
  5
150
330
18
100
AcDbEntity
  8
TEXT
100
AcDbText
 10
55.99468551732589
 20
364.3102970173856
 30
0.0
 40
4.0
  1
6-32 UNC
 41
0.9
 51
5.710593
 72
     1
 11
70.05182837446874
 21
366.3102970173856
 31
0.0
100
AcDbText
 73
     2
  0
TEXT
  5
151
330
18
100
AcDbEntity
  8
TEXT
100
AcDbText
 10
61.2189645173259
 20
357.6004890173857
 30
0.0
 40
4.0
  1
TYP
 41
0.9
 51
5.710593
 72
     1
 11
65.67610737446876
 21
359.6004890173857
 31
0.0
100
AcDbText
 73
     2
  0
LINE
  5
19B
330
18
100
AcDbEntity
  8
1
  6
Continuous
 62
     7
100
AcDbLine
 10
495.1082269208709
 20
415.564675888991
 30
0.0
 11
495.1082269208709
 21
315.8417300173856
 31
0.0
  0
LINE
  5
19C
330
18
100
AcDbEntity
  8
1
  6
Continuous
 62
     7
100
AcDbLine
 10
376.1069203721383
 20
315.8417300173856
 30
0.0
 11
376.1069203721383
 21
414.028655457842
 31
0.0
  0
LINE
  5
19D
330
18
100
AcDbEntity
  8
1
  6
Continuous
 62
     7
100
AcDbLine
 10
272.8425922646225
 20
390.988354131573
 30
0.0
 11
272.8425922646225
 21
315.8417300173856
 31
0.0
  0
INSERT
  5
509
330
18
100
AcDbEntity
  8
0
  6
Continuous
100
AcDbBlockReference
 66
     1
  2
A3-LANDSCAPE-THOR-LABS
 10
0.0
 20
130.4686170872503
 30
0.0
 41
2.0
 42
2.0
 43
2.0
  0
ATTRIB
  5
50B
330
509
100
AcDbEntity
  8
D1
100
AcDbText
 10
471.2045286867642
 20
187.1049932110416
 30
0.0
 40
4.0
  1
J.C.
  7
BORDER
100
AcDbAttribute
  2
DM
 70
     0
  0
ATTRIB
  5
50C
330
509
100
AcDbEntity
  8
D1
100
AcDbText
 10
514.7003018410166
 20
187.4189501684393
 30
0.0
 40
4.0
  1

  7
BORDER
100
AcDbAttribute
  2
EN
 70
     0
  0
ATTRIB
  5
50D
330
509
100
AcDbEntity
  8
D1
100
AcDbText
 10
564.7765056424242
 20
187.3710801377253
 30
0.0
 40
4.0
  1

  7
BORDER
100
AcDbAttribute
  2
AP
 70
     0
  0
ATTRIB
  5
50E
330
509
100
AcDbEntity
  8
D1
100
AcDbText
 10
473.2456563226425
 20
224.8112837980386
 30
0.0
 40
6.0
  1
PIEZOELECTRIC ACT. + FEEDBACK
  7
BORDER
100
AcDbAttribute
  2
TITLE
 70
     0
  0
ATTRIB
  5
50F
330
509
100
AcDbEntity
  8
D1
100
AcDbText
 10
492.5636654686885
 20
200.9362405395916
 30
0.0
 40
3.0
  1

  7
BORDER
100
AcDbAttribute
  2
SF
 70
     0
  0
ATTRIB
  5
510
330
509
100
AcDbEntity
  8
D1
100
AcDbText
 10
485.1526709377057
 20
173.3139415489511
 30
0.0
 40
4.0
  1

100
AcDbAttribute
  2
MT
 70
     0
  0
ATTRIB
  5
511
330
509
100
AcDbEntity
  8
D1
100
AcDbText
 10
458.414632451545
 20
158.5709326871672
 30
0.0
 40
4.0
  1
25.03.04
  7
BORDER
100
AcDbAttribute
  2
DATE
 70
     0
  0
ATTRIB
  5
512
330
509
100
AcDbEntity
  8
D1
100
AcDbText
 10
497.7746709011417
 20
158.4215589791945
 30
0.0
 40
4.0
  1
1
  7
BORDER
 72
     1
 11
498.6518638835979
 21
158.4215589791945
 31
0.0
100
AcDbAttribute
  2
REV
 70
     0
  0
ATTRIB
  5
513
330
509
100
AcDbEntity
  8
D1
100
AcDbText
 10
506.8788419017209
 20
158.5709326871672
 30
0.0
 40
4.0
  1
A3
  7
BORDER
100
AcDbAttribute
  2
SIZE
 70
     0
  0
ATTRIB
  5
514
330
509
100
AcDbEntity
  8
D1
100
AcDbText
 10
534.4015218777338
 20
158.2720251708467
 30
0.0
 40
4.0
  1
1 OF 1
  7
BORDER
100
AcDbAttribute
  2
SHT
 70
     0
  0
ATTRIB
  5
515
330
509
100
AcDbEntity
  8
D1
100
AcDbText
 10
579.7242859504467
 20
158.2720251708467
 30
0.0
 40
4.0
  1
1 : 2
  7
BORDER
100
AcDbAttribute
  2
SCL
 70
     0
  0
ATTRIB
  5
516
330
509
100
AcDbEntity
  8
D1
100
AcDbText
 10
460.8079089711818
 20
143.918060371501
 30
0.0
 40
4.0
  1
12748-E0W
  7
BORDER
100
AcDbAttribute
  2
DRG-NO.
 70
     0
  0
ATTRIB
  5
517
330
509
100
AcDbEntity
  8
D1
100
AcDbText
 10
529.3159892370741
 20
143.918060371501
 30
0.0
 40
4.0
  1
PAA015/M
  7
BORDER
100
AcDbAttribute
  2
PRT-NO.
 70
     0
  0
SEQEND
  5
50A
330
509
100
AcDbEntity
  8
0
  6
Continuous
  0
ENDSEC
  0
SECTION
  2
OBJECTS
  0
DICTIONARY
  5
C
330
0
100
AcDbDictionary
281
     1
  3
ACAD_GROUP
350
D
  3
ACAD_LAYOUT
350
346
  3
ACAD_MLINESTYLE
350
1B
  3
ACAD_PLOTSETTINGS
350
347
  3
ACAD_PLOTSTYLENAME
350
344
  3
DWGPROPS
350
51A
  0
DICTIONARY
  5
53E
330
18
100
AcDbDictionary
280
     1
281
     1
  3
ACAD_LAYOUTSELFREF
360
573
  0
DICTIONARY
  5
53C
330
15
100
AcDbDictionary
280
     1
281
     1
  3
ACAD_LAYOUTSELFREF
360
572
  0
DICTIONARY
  5
D
102
{ACAD_REACTORS
330
C
102
}
330
C
100
AcDbDictionary
281
     1
  0
DICTIONARY
  5
346
102
{ACAD_REACTORS
330
C
102
}
330
C
100
AcDbDictionary
281
     1
  3
Layout1
350
579
  3
Model
350
578
  0
DICTIONARY
  5
1B
102
{ACAD_REACTORS
330
C
102
}
330
C
100
AcDbDictionary
281
     1
  3
STANDARD
350
1C
  0
DICTIONARY
  5
347
102
{ACAD_REACTORS
330
C
102
}
330
C
100
AcDbDictionary
281
     1
  0
ACDBDICTIONARYWDFLT
  5
344
102
{ACAD_REACTORS
330
C
102
}
330
C
100
AcDbDictionary
281
     1
  3
Normal
350
345
100
AcDbDictionaryWithDefault
340
345
  0
XRECORD
  5
51A
102
{ACAD_REACTORS
330
C
102
}
330
C
100
AcDbXrecord
280
     1
  1
DWGPROPS COOKIE
  2

  3

  4

  6

  7

  8

  9

300
=
301
=
302
=
303
=
304
=
305
=
306
=
307
=
308
=
309
=
 40
0.0325683564814815
 41
2451745.702353229
 42
2453090.677205718
  1

 90
        0
  0
XRECORD
  5
573
102
{ACAD_REACTORS
330
53E
102
}
330
53E
100
AcDbXrecord
280
     1
340
18
  0
XRECORD
  5
572
102
{ACAD_REACTORS
330
53C
102
}
330
53C
100
AcDbXrecord
280
     1
340
15
  0
LAYOUT
  5
579
102
{ACAD_REACTORS
330
346
102
}
330
346
100
AcDbPlotSettings
  1

  2
RightFax Fax Printer
  4

  6

 40
0.0
 41
0.0
 42
0.0
 43
0.0
 44
0.0
 45
0.0
 46
0.0
 47
0.0
 48
0.0
 49
0.0
140
0.0
141
0.0
142
1.0
143
1.0
 70
   688
 72
     0
 73
     0
 74
     5
  7

 75
    16
147
1.0
148
0.0
149
0.0
100
AcDbLayout
  1
Layout1
 70
     1
 71
     1
 10
0.0
 20
0.0
 11
12.0
 21
9.0
 12
0.0
 22
0.0
 32
0.0
 14
1.000000000000000E+20
 24
1.000000000000000E+20
 34
1.000000000000000E+20
 15
-1.000000000000000E+20
 25
-1.000000000000000E+20
 35
-1.000000000000000E+20
146
0.0
 13
0.0
 23
0.0
 33
0.0
 16
1.0
 26
0.0
 36
0.0
 17
0.0
 27
1.0
 37
0.0
 76
     0
330
15
  0
LAYOUT
  5
578
102
{ACAD_REACTORS
330
346
102
}
330
346
100
AcDbPlotSettings
  1

  2
Adobe PDF
  4
Letter
  6

 40
3.174999952316284
 41
3.174999952316284
 42
3.175003051757812
 43
3.17498779296875
 44
215.8999938964843
 45
279.3999938964843
 46
0.0
 47
0.0
 48
0.0
 49
0.0
140
0.0
141
0.0
142
1.0
143
73.60352957680001
 70
 11952
 72
     0
 73
     1
 74
     0
  7

 75
     0
147
0.0135863049740919
148
2066.279006414392
149
-3254.082778594021
100
AcDbLayout
  1
Model
 70
     1
 71
     0
 10
0.0
 20
0.0
 11
12.0
 21
9.0
 12
0.0
 22
0.0
 32
0.0
 14
0.0
 24
0.0
 34
0.0
 15
0.0
 25
0.0
 35
0.0
146
0.0
 13
0.0
 23
0.0
 33
0.0
 16
1.0
 26
0.0
 36
0.0
 17
0.0
 27
1.0
 37
0.0
 76
     0
330
18
  0
MLINESTYLE
  5
1C
102
{ACAD_REACTORS
330
1B
102
}
330
1B
100
AcDbMlineStyle
  2
STANDARD
 70
     0
  3

 62
   256
 51
90.0
 52
90.0
 71
     2
 49
0.5
 62
   256
  6
BYLAYER
 49
-0.5
 62
   256
  6
BYLAYER
  0
ACDBPLACEHOLDER
  5
345
102
{ACAD_REACTORS
330
344
102
}
330
344
  0
ENDSEC
  0
EOF
