ISO-10303-21;
HEADER;
FILE_DESCRIPTION (( 'STEP AP203' ),
    '1' );
FILE_NAME ('Web Model 19653_19653.step',
    '2021-11-03T13:59:24',
    ( '' ),
    ( '' ),
    'SwSTEP 2.0',
    'SolidWorks 2018',
    '' );
FILE_SCHEMA (( 'CONFIG_CONTROL_DESIGN' ));
ENDSEC;

DATA;
#1 = APPROVAL ( #154, 'UNSPECIFIED' ) ;
#2 = ADVANCED_BREP_SHAPE_REPRESENTATION ( 'Web Model 19653_19653', ( #175, #62 ), #81 ) ;
#3 = CARTESIAN_POINT ( 'NONE',  ( 0.000000000000000000, 0.000000000000000000, 3.000000000000000000 ) ) ;
#4 = AXIS2_PLACEMENT_3D ( 'NONE', #3, #136, #111 ) ;
#5 = DATE_AND_TIME ( #171, #135 ) ;
#6 = CARTESIAN_POINT ( 'NONE',  ( 0.000000000000000000, 0.000000000000000000, 3.000000000000000000 ) ) ;
#7 = DATE_AND_TIME ( #55, #158 ) ;
#8 = AXIS2_PLACEMENT_3D ( 'NONE', #86, #35, #38 ) ;
#9 = APPLICATION_CONTEXT ( 'configuration controlled 3d designs of mechanical parts and assemblies' ) ;
#10 = ORIENTED_EDGE ( 'NONE', *, *, #95, .F. ) ;
#11 = LINE ( 'NONE', #47, #148 ) ;
#12 = CC_DESIGN_APPROVAL ( #1, ( #168 ) ) ;
#13 = CC_DESIGN_SECURITY_CLASSIFICATION ( #168, ( #160 ) ) ;
#14 = COORDINATED_UNIVERSAL_TIME_OFFSET ( 5, 0, .BEHIND. ) ;
#15 = ORIENTED_EDGE ( 'NONE', *, *, #45, .F. ) ;
#16 = CC_DESIGN_PERSON_AND_ORGANIZATION_ASSIGNMENT ( #59, #22, ( #168 ) ) ;
#17 = CYLINDRICAL_SURFACE ( 'NONE', #31, 12.69999999999999574 ) ;
#18 = AXIS2_PLACEMENT_3D ( 'NONE', #50, #138, #60 ) ;
#19 = PERSON_AND_ORGANIZATION ( #125, #122 ) ;
#20 = VERTEX_POINT ( 'NONE', #112 ) ;
#21 = DIRECTION ( 'NONE',  ( 1.000000000000000000, 0.000000000000000000, 0.000000000000000000 ) ) ;
#22 = PERSON_AND_ORGANIZATION_ROLE ( 'classification_officer' ) ;
#23 = DATE_AND_TIME ( #42, #107 ) ;
#24 =( NAMED_UNIT ( * ) PLANE_ANGLE_UNIT ( ) SI_UNIT ( $, .RADIAN. ) );
#25 = CC_DESIGN_DATE_AND_TIME_ASSIGNMENT ( #23, #115, ( #168 ) ) ;
#26 = PERSON_AND_ORGANIZATION_ROLE ( 'design_supplier' ) ;
#27 = APPROVAL_DATE_TIME ( #133, #172 ) ;
#28 = DESIGN_CONTEXT ( 'detailed design', #9, 'design' ) ;
#29 = PRODUCT_DEFINITION ( 'UNKNOWN', '', #160, #28 ) ;
#30 = ADVANCED_FACE ( 'NONE', ( #82 ), #110, .F. ) ;
#31 = AXIS2_PLACEMENT_3D ( 'NONE', #161, #98, #164 ) ;
#32 = ORIENTED_EDGE ( 'NONE', *, *, #127, .F. ) ;
#33 = CC_DESIGN_APPROVAL ( #106, ( #29 ) ) ;
#34 = DIRECTION ( 'NONE',  ( 1.000000000000000000, 0.000000000000000000, -0.000000000000000000 ) ) ;
#35 = DIRECTION ( 'NONE',  ( 0.000000000000000000, 0.000000000000000000, 1.000000000000000000 ) ) ;
#36 = CC_DESIGN_PERSON_AND_ORGANIZATION_ASSIGNMENT ( #137, #26, ( #160 ) ) ;
#37 = LOCAL_TIME ( 9, 59, 24.00000000000000000, #76 ) ;
#38 = DIRECTION ( 'NONE',  ( 1.000000000000000000, 0.000000000000000000, 0.000000000000000000 ) ) ;
#39 = APPROVAL_STATUS ( 'not_yet_approved' ) ;
#40 = PERSON_AND_ORGANIZATION ( #125, #122 ) ;
#41 =( LENGTH_UNIT ( ) NAMED_UNIT ( * ) SI_UNIT ( .MILLI., .METRE. ) );
#42 = CALENDAR_DATE ( 2021, 3, 11 ) ;
#43 = PRODUCT_RELATED_PRODUCT_CATEGORY ( 'detail', '', ( #73 ) ) ;
#44 = ADVANCED_FACE ( 'NONE', ( #134 ), #88, .T. ) ;
#45 = EDGE_CURVE ( 'NONE', #159, #119, #146, .T. ) ;
#46 = CARTESIAN_POINT ( 'NONE',  ( 0.000000000000000000, 0.000000000000000000, 0.000000000000000000 ) ) ;
#47 = CARTESIAN_POINT ( 'NONE',  ( -12.69999999999999574, 0.000000000000000000, 3.000000000000000000 ) ) ;
#48 = APPLICATION_PROTOCOL_DEFINITION ( 'international standard', 'config_control_design', 1994, #9 ) ;
#49 = DIRECTION ( 'NONE',  ( 1.000000000000000000, 0.000000000000000000, 0.000000000000000000 ) ) ;
#50 = CARTESIAN_POINT ( 'NONE',  ( 0.000000000000000000, 0.000000000000000000, 3.000000000000000000 ) ) ;
#51 = VERTEX_POINT ( 'NONE', #56 ) ;
#52 = EDGE_CURVE ( 'NONE', #159, #51, #93, .T. ) ;
#53 = ORIENTED_EDGE ( 'NONE', *, *, #95, .T. ) ;
#54 = CIRCLE ( 'NONE', #8, 12.69999999999999574 ) ;
#55 = CALENDAR_DATE ( 2021, 3, 11 ) ;
#56 = CARTESIAN_POINT ( 'NONE',  ( 12.69999999999999574, 1.555301434917138038E-15, 0.000000000000000000 ) ) ;
#57 = CARTESIAN_POINT ( 'NONE',  ( 0.000000000000000000, 0.000000000000000000, 0.000000000000000000 ) ) ;
#58 = CC_DESIGN_DATE_AND_TIME_ASSIGNMENT ( #63, #103, ( #29 ) ) ;
#59 = PERSON_AND_ORGANIZATION ( #125, #122 ) ;
#60 = DIRECTION ( 'NONE',  ( 1.000000000000000000, 0.000000000000000000, -0.000000000000000000 ) ) ;
#61 = APPROVAL_STATUS ( 'not_yet_approved' ) ;
#62 = AXIS2_PLACEMENT_3D ( 'NONE', #66, #117, #49 ) ;
#63 = DATE_AND_TIME ( #145, #37 ) ;
#64 =( NAMED_UNIT ( * ) SI_UNIT ( $, .STERADIAN. ) SOLID_ANGLE_UNIT ( ) );
#65 = ORIENTED_EDGE ( 'NONE', *, *, #124, .T. ) ;
#66 = CARTESIAN_POINT ( 'NONE',  ( 0.000000000000000000, 0.000000000000000000, 0.000000000000000000 ) ) ;
#67 = APPROVAL_PERSON_ORGANIZATION ( #120, #1, #77 ) ;
#68 = APPROVAL_PERSON_ORGANIZATION ( #19, #172, #128 ) ;
#69 = PERSON_AND_ORGANIZATION ( #125, #122 ) ;
#70 = CC_DESIGN_PERSON_AND_ORGANIZATION_ASSIGNMENT ( #40, #113, ( #160 ) ) ;
#71 = DIRECTION ( 'NONE',  ( 0.000000000000000000, 0.000000000000000000, 1.000000000000000000 ) ) ;
#72 = CALENDAR_DATE ( 2021, 3, 11 ) ;
#73 = PRODUCT ( 'Web Model 19653_19653', 'Web Model 19653_19653', '', ( #132 ) ) ;
#74 = DIRECTION ( 'NONE',  ( 1.000000000000000000, 0.000000000000000000, 0.000000000000000000 ) ) ;
#75 = PLANE ( 'NONE',  #18 ) ;
#76 = COORDINATED_UNIVERSAL_TIME_OFFSET ( 5, 0, .BEHIND. ) ;
#77 = APPROVAL_ROLE ( '' ) ;
#78 = ORIENTED_EDGE ( 'NONE', *, *, #144, .T. ) ;
#79 = CIRCLE ( 'NONE', #123, 12.69999999999999574 ) ;
#80 = ORIENTED_EDGE ( 'NONE', *, *, #127, .T. ) ;
#81 =( GEOMETRIC_REPRESENTATION_CONTEXT ( 3 ) GLOBAL_UNCERTAINTY_ASSIGNED_CONTEXT ( ( #163 ) ) GLOBAL_UNIT_ASSIGNED_CONTEXT ( ( #41, #24, #64 ) ) REPRESENTATION_CONTEXT ( 'NONE', 'WORKASPACE' ) );
#82 = FACE_OUTER_BOUND ( 'NONE', #121, .T. ) ;
#83 = PERSON_AND_ORGANIZATION ( #125, #122 ) ;
#84 = CARTESIAN_POINT ( 'NONE',  ( -12.69999999999999574, 0.000000000000000000, 3.000000000000000000 ) ) ;
#85 = PRODUCT_DEFINITION_SHAPE ( 'NONE', 'NONE',  #29 ) ;
#86 = CARTESIAN_POINT ( 'NONE',  ( 0.000000000000000000, 0.000000000000000000, 0.000000000000000000 ) ) ;
#87 = DIRECTION ( 'NONE',  ( 0.000000000000000000, 0.000000000000000000, 1.000000000000000000 ) ) ;
#88 = CYLINDRICAL_SURFACE ( 'NONE', #4, 12.69999999999999574 ) ;
#89 = APPROVAL_ROLE ( '' ) ;
#90 = AXIS2_PLACEMENT_3D ( 'NONE', #131, #87, #74 ) ;
#91 = FACE_OUTER_BOUND ( 'NONE', #130, .T. ) ;
#92 = APPLICATION_PROTOCOL_DEFINITION ( 'international standard', 'config_control_design', 1994, #169 ) ;
#93 = LINE ( 'NONE', #165, #157 ) ;
#94 = EDGE_LOOP ( 'NONE', ( #15, #162, #53, #152 ) ) ;
#95 = EDGE_CURVE ( 'NONE', #51, #20, #54, .T. ) ;
#96 = ADVANCED_FACE ( 'NONE', ( #91 ), #17, .T. ) ;
#97 = FACE_OUTER_BOUND ( 'NONE', #114, .T. ) ;
#98 = DIRECTION ( 'NONE',  ( -0.000000000000000000, -0.000000000000000000, -1.000000000000000000 ) ) ;
#99 = DIRECTION ( 'NONE',  ( -0.000000000000000000, -0.000000000000000000, -1.000000000000000000 ) ) ;
#100 = LOCAL_TIME ( 9, 59, 24.00000000000000000, #174 ) ;
#101 = DIRECTION ( 'NONE',  ( -0.000000000000000000, -0.000000000000000000, -1.000000000000000000 ) ) ;
#102 = CC_DESIGN_PERSON_AND_ORGANIZATION_ASSIGNMENT ( #69, #140, ( #73 ) ) ;
#103 = DATE_TIME_ROLE ( 'creation_date' ) ;
#104 = PERSON_AND_ORGANIZATION_ROLE ( 'creator' ) ;
#105 = COORDINATED_UNIVERSAL_TIME_OFFSET ( 5, 0, .BEHIND. ) ;
#106 = APPROVAL ( #61, 'UNSPECIFIED' ) ;
#107 = LOCAL_TIME ( 9, 59, 24.00000000000000000, #105 ) ;
#108 = ORIENTED_EDGE ( 'NONE', *, *, #124, .F. ) ;
#109 = APPROVAL_PERSON_ORGANIZATION ( #83, #106, #89 ) ;
#110 = PLANE ( 'NONE',  #142 ) ;
#111 = DIRECTION ( 'NONE',  ( -1.000000000000000000, 0.000000000000000000, 0.000000000000000000 ) ) ;
#112 = CARTESIAN_POINT ( 'NONE',  ( -12.69999999999999574, 0.000000000000000000, 0.000000000000000000 ) ) ;
#113 = PERSON_AND_ORGANIZATION_ROLE ( 'creator' ) ;
#114 = EDGE_LOOP ( 'NONE', ( #80, #167 ) ) ;
#115 = DATE_TIME_ROLE ( 'classification_date' ) ;
#116 = CC_DESIGN_APPROVAL ( #172, ( #160 ) ) ;
#117 = DIRECTION ( 'NONE',  ( 0.000000000000000000, 0.000000000000000000, 1.000000000000000000 ) ) ;
#118 = SECURITY_CLASSIFICATION_LEVEL ( 'unclassified' ) ;
#119 = VERTEX_POINT ( 'NONE', #84 ) ;
#120 = PERSON_AND_ORGANIZATION ( #125, #122 ) ;
#121 = EDGE_LOOP ( 'NONE', ( #108, #10 ) ) ;
#122 = ORGANIZATION ( 'UNSPECIFIED', 'UNSPECIFIED', '' ) ;
#123 = AXIS2_PLACEMENT_3D ( 'NONE', #57, #166, #21 ) ;
#124 = EDGE_CURVE ( 'NONE', #20, #51, #79, .T. ) ;
#125 = PERSON ( 'UNSPECIFIED', 'UNSPECIFIED', 'UNSPECIFIED', ('UNSPECIFIED'), ('UNSPECIFIED'), ('UNSPECIFIED') ) ;
#126 = COORDINATED_UNIVERSAL_TIME_OFFSET ( 5, 0, .BEHIND. ) ;
#127 = EDGE_CURVE ( 'NONE', #119, #159, #156, .T. ) ;
#128 = APPROVAL_ROLE ( '' ) ;
#129 = PERSON_AND_ORGANIZATION ( #125, #122 ) ;
#130 = EDGE_LOOP ( 'NONE', ( #173, #32, #78, #65 ) ) ;
#131 = CARTESIAN_POINT ( 'NONE',  ( 0.000000000000000000, 0.000000000000000000, 3.000000000000000000 ) ) ;
#132 = MECHANICAL_CONTEXT ( 'NONE', #169, 'mechanical' ) ;
#133 = DATE_AND_TIME ( #72, #100 ) ;
#134 = FACE_OUTER_BOUND ( 'NONE', #94, .T. ) ;
#135 = LOCAL_TIME ( 9, 59, 24.00000000000000000, #126 ) ;
#136 = DIRECTION ( 'NONE',  ( -0.000000000000000000, -0.000000000000000000, -1.000000000000000000 ) ) ;
#137 = PERSON_AND_ORGANIZATION ( #125, #122 ) ;
#138 = DIRECTION ( 'NONE',  ( 0.000000000000000000, 0.000000000000000000, 1.000000000000000000 ) ) ;
#139 = APPROVAL_DATE_TIME ( #5, #106 ) ;
#140 = PERSON_AND_ORGANIZATION_ROLE ( 'design_owner' ) ;
#141 = SHAPE_DEFINITION_REPRESENTATION ( #85, #2 ) ;
#142 = AXIS2_PLACEMENT_3D ( 'NONE', #46, #71, #34 ) ;
#143 = APPROVAL_DATE_TIME ( #7, #1 ) ;
#144 = EDGE_CURVE ( 'NONE', #119, #20, #11, .T. ) ;
#145 = CALENDAR_DATE ( 2021, 3, 11 ) ;
#146 = CIRCLE ( 'NONE', #170, 12.69999999999999574 ) ;
#147 = CLOSED_SHELL ( 'NONE', ( #44, #96, #149, #30 ) ) ;
#148 = VECTOR ( 'NONE', #99, 1000.000000000000000 ) ;
#149 = ADVANCED_FACE ( 'NONE', ( #97 ), #75, .T. ) ;
#150 = DIRECTION ( 'NONE',  ( 1.000000000000000000, 0.000000000000000000, 0.000000000000000000 ) ) ;
#151 = DIRECTION ( 'NONE',  ( 0.000000000000000000, 0.000000000000000000, 1.000000000000000000 ) ) ;
#152 = ORIENTED_EDGE ( 'NONE', *, *, #144, .F. ) ;
#153 = CC_DESIGN_PERSON_AND_ORGANIZATION_ASSIGNMENT ( #129, #104, ( #29 ) ) ;
#154 = APPROVAL_STATUS ( 'not_yet_approved' ) ;
#155 = CARTESIAN_POINT ( 'NONE',  ( 12.69999999999999574, 1.555301434917138038E-15, 3.000000000000000000 ) ) ;
#156 = CIRCLE ( 'NONE', #90, 12.69999999999999574 ) ;
#157 = VECTOR ( 'NONE', #101, 1000.000000000000000 ) ;
#158 = LOCAL_TIME ( 9, 59, 24.00000000000000000, #14 ) ;
#159 = VERTEX_POINT ( 'NONE', #155 ) ;
#160 = PRODUCT_DEFINITION_FORMATION_WITH_SPECIFIED_SOURCE ( 'ANY', '', #73, .NOT_KNOWN. ) ;
#161 = CARTESIAN_POINT ( 'NONE',  ( 0.000000000000000000, 0.000000000000000000, 3.000000000000000000 ) ) ;
#162 = ORIENTED_EDGE ( 'NONE', *, *, #52, .T. ) ;
#163 = UNCERTAINTY_MEASURE_WITH_UNIT (LENGTH_MEASURE( 1.000000000000000082E-05 ), #41, 'distance_accuracy_value', 'NONE');
#164 = DIRECTION ( 'NONE',  ( -1.000000000000000000, 0.000000000000000000, 0.000000000000000000 ) ) ;
#165 = CARTESIAN_POINT ( 'NONE',  ( 12.69999999999999574, 1.555301434917138038E-15, 3.000000000000000000 ) ) ;
#166 = DIRECTION ( 'NONE',  ( 0.000000000000000000, 0.000000000000000000, 1.000000000000000000 ) ) ;
#167 = ORIENTED_EDGE ( 'NONE', *, *, #45, .T. ) ;
#168 = SECURITY_CLASSIFICATION ( '', '', #118 ) ;
#169 = APPLICATION_CONTEXT ( 'configuration controlled 3d designs of mechanical parts and assemblies' ) ;
#170 = AXIS2_PLACEMENT_3D ( 'NONE', #6, #151, #150 ) ;
#171 = CALENDAR_DATE ( 2021, 3, 11 ) ;
#172 = APPROVAL ( #39, 'UNSPECIFIED' ) ;
#173 = ORIENTED_EDGE ( 'NONE', *, *, #52, .F. ) ;
#174 = COORDINATED_UNIVERSAL_TIME_OFFSET ( 5, 0, .BEHIND. ) ;
#175 = MANIFOLD_SOLID_BREP ( 'Boss-Extrude1', #147 ) ;
ENDSEC;
END-ISO-10303-21;
