ISO-10303-21;
HEADER;
FILE_DESCRIPTION (( 'STEP AP203' ),
    '1' );
FILE_NAME ('Web Model 39231_39246.step',
    '2018-07-25T17:05:22',
    ( '' ),
    ( '' ),
    'SwSTEP 2.0',
    'SolidWorks 2016',
    '' );
FILE_SCHEMA (( 'CONFIG_CONTROL_DESIGN' ));
ENDSEC;

DATA;
#1 = DIRECTION ( 'NONE',  ( -1.000000000000000000, 0.0000000000000000000, 0.0000000000000000000 ) ) ;
#2 = VECTOR ( 'NONE', #120, 1000.000000000000000 ) ;
#3 = DIRECTION ( 'NONE',  ( 1.000000000000000000, 0.0000000000000000000, -0.0000000000000000000 ) ) ;
#4 = EDGE_CURVE ( 'NONE', #104, #157, #34, .T. ) ;
#5 = EDGE_LOOP ( 'NONE', ( #31, #145 ) ) ;
#6 = ORIENTED_EDGE ( 'NONE', *, *, #87, .F. ) ;
#7 = LINE ( 'NONE', #10, #2 ) ;
#8 = CC_DESIGN_PERSON_AND_ORGANIZATION_ASSIGNMENT ( #78, #163, ( #123 ) ) ;
#9 = PERSON_AND_ORGANIZATION ( #134, #144 ) ;
#10 = CARTESIAN_POINT ( 'NONE',  ( 3.174999999999999800, 3.888253587292846100E-016, 0.2500000000000000000 ) ) ;
#11 = EDGE_CURVE ( 'NONE', #157, #104, #20, .T. ) ;
#12 = LOCAL_TIME ( 13, 5, 22.00000000000000000, #59 ) ;
#13 = DIRECTION ( 'NONE',  ( 1.000000000000000000, 0.0000000000000000000, 0.0000000000000000000 ) ) ;
#14 = DIRECTION ( 'NONE',  ( -0.0000000000000000000, -0.0000000000000000000, -1.000000000000000000 ) ) ;
#15 = PERSON_AND_ORGANIZATION_ROLE ( 'classification_officer' ) ;
#16 = APPROVAL_STATUS ( 'not_yet_approved' ) ;
#17 = ORIENTED_EDGE ( 'NONE', *, *, #28, .T. ) ;
#18 = AXIS2_PLACEMENT_3D ( 'NONE', #27, #68, #173 ) ;
#19 = DATE_AND_TIME ( #40, #12 ) ;
#20 = CIRCLE ( 'NONE', #154, 3.174999999999999800 ) ;
#21 = CC_DESIGN_PERSON_AND_ORGANIZATION_ASSIGNMENT ( #74, #141, ( #62 ) ) ;
#22 = PERSON_AND_ORGANIZATION ( #134, #144 ) ;
#23 = CARTESIAN_POINT ( 'NONE',  ( 0.0000000000000000000, 0.0000000000000000000, 0.2500000000000000000 ) ) ;
#24 = DATE_AND_TIME ( #106, #101 ) ;
#25 = APPROVAL_STATUS ( 'not_yet_approved' ) ;
#26 = APPROVAL_DATE_TIME ( #156, #161 ) ;
#27 = CARTESIAN_POINT ( 'NONE',  ( 0.0000000000000000000, 0.0000000000000000000, -0.2500000000000000000 ) ) ;
#28 = EDGE_CURVE ( 'NONE', #104, #45, #7, .T. ) ;
#29 = ADVANCED_BREP_SHAPE_REPRESENTATION ( 'Web Model 39231_39246', ( #57, #167 ), #32 ) ;
#30 = CARTESIAN_POINT ( 'NONE',  ( 3.174999999999999800, 3.888253587292846100E-016, 0.2500000000000000000 ) ) ;
#31 = ORIENTED_EDGE ( 'NONE', *, *, #97, .F. ) ;
#32 =( GEOMETRIC_REPRESENTATION_CONTEXT ( 3 ) GLOBAL_UNCERTAINTY_ASSIGNED_CONTEXT ( ( #160 ) ) GLOBAL_UNIT_ASSIGNED_CONTEXT ( ( #84, #55, #42 ) ) REPRESENTATION_CONTEXT ( 'NONE', 'WORKASPACE' ) );
#33 = CC_DESIGN_DATE_AND_TIME_ASSIGNMENT ( #19, #148, ( #171 ) ) ;
#34 = CIRCLE ( 'NONE', #56, 3.174999999999999800 ) ;
#35 = LINE ( 'NONE', #39, #118 ) ;
#36 = LOCAL_TIME ( 13, 5, 22.00000000000000000, #135 ) ;
#37 = AXIS2_PLACEMENT_3D ( 'NONE', #124, #98, #3 ) ;
#38 = CYLINDRICAL_SURFACE ( 'NONE', #114, 3.174999999999999800 ) ;
#39 = CARTESIAN_POINT ( 'NONE',  ( -3.174999999999999800, 0.0000000000000000000, 0.2500000000000000000 ) ) ;
#40 = CALENDAR_DATE ( 2018, 25, 7 ) ;
#41 = DIRECTION ( 'NONE',  ( 1.000000000000000000, 0.0000000000000000000, 0.0000000000000000000 ) ) ;
#42 =( NAMED_UNIT ( * ) SI_UNIT ( $, .STERADIAN. ) SOLID_ANGLE_UNIT ( ) );
#43 = PERSON_AND_ORGANIZATION ( #134, #144 ) ;
#44 = MECHANICAL_CONTEXT ( 'NONE', #149, 'mechanical' ) ;
#45 = VERTEX_POINT ( 'NONE', #85 ) ;
#46 = CC_DESIGN_APPROVAL ( #94, ( #123 ) ) ;
#47 = FACE_OUTER_BOUND ( 'NONE', #127, .T. ) ;
#48 = EDGE_CURVE ( 'NONE', #45, #76, #143, .T. ) ;
#49 = CARTESIAN_POINT ( 'NONE',  ( 0.0000000000000000000, 0.0000000000000000000, 0.2500000000000000000 ) ) ;
#50 = CARTESIAN_POINT ( 'NONE',  ( -3.174999999999999800, 0.0000000000000000000, -0.2500000000000000000 ) ) ;
#51 = APPLICATION_PROTOCOL_DEFINITION ( 'international standard', 'config_control_design', 1994, #138 ) ;
#52 = ADVANCED_FACE ( 'NONE', ( #169 ), #133, .F. ) ;
#53 = CC_DESIGN_APPROVAL ( #161, ( #79 ) ) ;
#54 = CARTESIAN_POINT ( 'NONE',  ( 0.0000000000000000000, 0.0000000000000000000, -0.2500000000000000000 ) ) ;
#55 =( NAMED_UNIT ( * ) PLANE_ANGLE_UNIT ( ) SI_UNIT ( $, .RADIAN. ) );
#56 = AXIS2_PLACEMENT_3D ( 'NONE', #119, #146, #159 ) ;
#57 = MANIFOLD_SOLID_BREP ( 'Boss-Extrude1', #121 ) ;
#58 = COORDINATED_UNIVERSAL_TIME_OFFSET ( 5, 0, .BEHIND. ) ;
#59 = COORDINATED_UNIVERSAL_TIME_OFFSET ( 5, 0, .BEHIND. ) ;
#60 = CALENDAR_DATE ( 2018, 25, 7 ) ;
#61 = CIRCLE ( 'NONE', #18, 3.174999999999999800 ) ;
#62 = PRODUCT ( 'Web Model 39231_39246', 'Web Model 39231_39246', '', ( #44 ) ) ;
#63 = APPROVAL_ROLE ( '' ) ;
#64 = CC_DESIGN_PERSON_AND_ORGANIZATION_ASSIGNMENT ( #102, #93, ( #171 ) ) ;
#65 = ORIENTED_EDGE ( 'NONE', *, *, #4, .T. ) ;
#66 = DIRECTION ( 'NONE',  ( 1.000000000000000000, 0.0000000000000000000, -0.0000000000000000000 ) ) ;
#67 = LOCAL_TIME ( 13, 5, 22.00000000000000000, #72 ) ;
#68 = DIRECTION ( 'NONE',  ( 0.0000000000000000000, 0.0000000000000000000, 1.000000000000000000 ) ) ;
#69 = AXIS2_PLACEMENT_3D ( 'NONE', #126, #125, #1 ) ;
#70 = DATE_TIME_ROLE ( 'classification_date' ) ;
#71 = CARTESIAN_POINT ( 'NONE',  ( 0.0000000000000000000, 0.0000000000000000000, 0.0000000000000000000 ) ) ;
#72 = COORDINATED_UNIVERSAL_TIME_OFFSET ( 5, 0, .BEHIND. ) ;
#73 = CC_DESIGN_APPROVAL ( #91, ( #171 ) ) ;
#74 = PERSON_AND_ORGANIZATION ( #134, #144 ) ;
#75 = COORDINATED_UNIVERSAL_TIME_OFFSET ( 5, 0, .BEHIND. ) ;
#76 = VERTEX_POINT ( 'NONE', #50 ) ;
#77 = ORIENTED_EDGE ( 'NONE', *, *, #11, .T. ) ;
#78 = PERSON_AND_ORGANIZATION ( #134, #144 ) ;
#79 = SECURITY_CLASSIFICATION ( '', '', #139 ) ;
#80 = ORIENTED_EDGE ( 'NONE', *, *, #48, .T. ) ;
#81 = PRODUCT_DEFINITION_SHAPE ( 'NONE', 'NONE',  #171 ) ;
#82 = APPROVAL_ROLE ( '' ) ;
#83 = APPROVAL_PERSON_ORGANIZATION ( #131, #94, #63 ) ;
#84 =( LENGTH_UNIT ( ) NAMED_UNIT ( * ) SI_UNIT ( .MILLI., .METRE. ) );
#85 = CARTESIAN_POINT ( 'NONE',  ( 3.174999999999999800, 3.888253587292846100E-016, -0.2500000000000000000 ) ) ;
#86 = DESIGN_CONTEXT ( 'detailed design', #138, 'design' ) ;
#87 = EDGE_CURVE ( 'NONE', #157, #76, #35, .T. ) ;
#88 = CYLINDRICAL_SURFACE ( 'NONE', #69, 3.174999999999999800 ) ;
#89 = LOCAL_TIME ( 13, 5, 22.00000000000000000, #58 ) ;
#90 = CC_DESIGN_PERSON_AND_ORGANIZATION_ASSIGNMENT ( #43, #15, ( #79 ) ) ;
#91 = APPROVAL ( #152, 'UNSPECIFIED' ) ;
#92 = DIRECTION ( 'NONE',  ( 1.000000000000000000, 0.0000000000000000000, 0.0000000000000000000 ) ) ;
#93 = PERSON_AND_ORGANIZATION_ROLE ( 'creator' ) ;
#94 = APPROVAL ( #25, 'UNSPECIFIED' ) ;
#95 = ADVANCED_FACE ( 'NONE', ( #47 ), #38, .T. ) ;
#96 = CARTESIAN_POINT ( 'NONE',  ( 0.0000000000000000000, 0.0000000000000000000, -0.2500000000000000000 ) ) ;
#97 = EDGE_CURVE ( 'NONE', #76, #45, #61, .T. ) ;
#98 = DIRECTION ( 'NONE',  ( 0.0000000000000000000, 0.0000000000000000000, 1.000000000000000000 ) ) ;
#99 = DIRECTION ( 'NONE',  ( 0.0000000000000000000, 0.0000000000000000000, 1.000000000000000000 ) ) ;
#100 = SHAPE_DEFINITION_REPRESENTATION ( #81, #29 ) ;
#101 = LOCAL_TIME ( 13, 5, 22.00000000000000000, #75 ) ;
#102 = PERSON_AND_ORGANIZATION ( #134, #144 ) ;
#103 = EDGE_LOOP ( 'NONE', ( #117, #17, #80, #6 ) ) ;
#104 = VERTEX_POINT ( 'NONE', #30 ) ;
#105 = CC_DESIGN_DATE_AND_TIME_ASSIGNMENT ( #24, #70, ( #79 ) ) ;
#106 = CALENDAR_DATE ( 2018, 25, 7 ) ;
#107 = FACE_OUTER_BOUND ( 'NONE', #103, .T. ) ;
#108 = PRODUCT_RELATED_PRODUCT_CATEGORY ( 'detail', '', ( #62 ) ) ;
#109 = FACE_OUTER_BOUND ( 'NONE', #128, .T. ) ;
#110 = DIRECTION ( 'NONE',  ( -0.0000000000000000000, -0.0000000000000000000, -1.000000000000000000 ) ) ;
#111 = APPLICATION_PROTOCOL_DEFINITION ( 'international standard', 'config_control_design', 1994, #149 ) ;
#112 = DIRECTION ( 'NONE',  ( 0.0000000000000000000, 0.0000000000000000000, 1.000000000000000000 ) ) ;
#113 = ORIENTED_EDGE ( 'NONE', *, *, #97, .T. ) ;
#114 = AXIS2_PLACEMENT_3D ( 'NONE', #23, #110, #174 ) ;
#115 = ORIENTED_EDGE ( 'NONE', *, *, #28, .F. ) ;
#116 = APPROVAL_DATE_TIME ( #122, #94 ) ;
#117 = ORIENTED_EDGE ( 'NONE', *, *, #4, .F. ) ;
#118 = VECTOR ( 'NONE', #14, 1000.000000000000000 ) ;
#119 = CARTESIAN_POINT ( 'NONE',  ( 0.0000000000000000000, 0.0000000000000000000, 0.2500000000000000000 ) ) ;
#120 = DIRECTION ( 'NONE',  ( -0.0000000000000000000, -0.0000000000000000000, -1.000000000000000000 ) ) ;
#121 = CLOSED_SHELL ( 'NONE', ( #137, #95, #150, #52 ) ) ;
#122 = DATE_AND_TIME ( #170, #36 ) ;
#123 = PRODUCT_DEFINITION_FORMATION_WITH_SPECIFIED_SOURCE ( 'ANY', '', #62, .NOT_KNOWN. ) ;
#124 = CARTESIAN_POINT ( 'NONE',  ( 0.0000000000000000000, 0.0000000000000000000, 0.2500000000000000000 ) ) ;
#125 = DIRECTION ( 'NONE',  ( -0.0000000000000000000, -0.0000000000000000000, -1.000000000000000000 ) ) ;
#126 = CARTESIAN_POINT ( 'NONE',  ( 0.0000000000000000000, 0.0000000000000000000, 0.2500000000000000000 ) ) ;
#127 = EDGE_LOOP ( 'NONE', ( #115, #166, #142, #113 ) ) ;
#128 = EDGE_LOOP ( 'NONE', ( #77, #65 ) ) ;
#129 = APPROVAL_PERSON_ORGANIZATION ( #22, #161, #162 ) ;
#130 = AXIS2_PLACEMENT_3D ( 'NONE', #54, #112, #66 ) ;
#131 = PERSON_AND_ORGANIZATION ( #134, #144 ) ;
#132 = CALENDAR_DATE ( 2018, 25, 7 ) ;
#133 = PLANE ( 'NONE',  #130 ) ;
#134 = PERSON ( 'UNSPECIFIED', 'UNSPECIFIED', 'UNSPECIFIED', ('UNSPECIFIED'), ('UNSPECIFIED'), ('UNSPECIFIED') ) ;
#135 = COORDINATED_UNIVERSAL_TIME_OFFSET ( 5, 0, .BEHIND. ) ;
#136 = DATE_AND_TIME ( #132, #89 ) ;
#137 = ADVANCED_FACE ( 'NONE', ( #107 ), #88, .T. ) ;
#138 = APPLICATION_CONTEXT ( 'configuration controlled 3d designs of mechanical parts and assemblies' ) ;
#139 = SECURITY_CLASSIFICATION_LEVEL ( 'unclassified' ) ;
#140 = PLANE ( 'NONE',  #37 ) ;
#141 = PERSON_AND_ORGANIZATION_ROLE ( 'design_owner' ) ;
#142 = ORIENTED_EDGE ( 'NONE', *, *, #87, .T. ) ;
#143 = CIRCLE ( 'NONE', #158, 3.174999999999999800 ) ;
#144 = ORGANIZATION ( 'UNSPECIFIED', 'UNSPECIFIED', '' ) ;
#145 = ORIENTED_EDGE ( 'NONE', *, *, #48, .F. ) ;
#146 = DIRECTION ( 'NONE',  ( 0.0000000000000000000, 0.0000000000000000000, 1.000000000000000000 ) ) ;
#147 = DIRECTION ( 'NONE',  ( 0.0000000000000000000, 0.0000000000000000000, 1.000000000000000000 ) ) ;
#148 = DATE_TIME_ROLE ( 'creation_date' ) ;
#149 = APPLICATION_CONTEXT ( 'configuration controlled 3d designs of mechanical parts and assemblies' ) ;
#150 = ADVANCED_FACE ( 'NONE', ( #109 ), #140, .T. ) ;
#151 = CC_DESIGN_SECURITY_CLASSIFICATION ( #79, ( #123 ) ) ;
#152 = APPROVAL_STATUS ( 'not_yet_approved' ) ;
#153 = CARTESIAN_POINT ( 'NONE',  ( -3.174999999999999800, 0.0000000000000000000, 0.2500000000000000000 ) ) ;
#154 = AXIS2_PLACEMENT_3D ( 'NONE', #49, #147, #92 ) ;
#155 = APPROVAL_PERSON_ORGANIZATION ( #172, #91, #82 ) ;
#156 = DATE_AND_TIME ( #60, #67 ) ;
#157 = VERTEX_POINT ( 'NONE', #153 ) ;
#158 = AXIS2_PLACEMENT_3D ( 'NONE', #96, #164, #13 ) ;
#159 = DIRECTION ( 'NONE',  ( 1.000000000000000000, 0.0000000000000000000, 0.0000000000000000000 ) ) ;
#160 = UNCERTAINTY_MEASURE_WITH_UNIT (LENGTH_MEASURE( 1.000000000000000100E-005 ), #84, 'distance_accuracy_value', 'NONE');
#161 = APPROVAL ( #16, 'UNSPECIFIED' ) ;
#162 = APPROVAL_ROLE ( '' ) ;
#163 = PERSON_AND_ORGANIZATION_ROLE ( 'creator' ) ;
#164 = DIRECTION ( 'NONE',  ( 0.0000000000000000000, 0.0000000000000000000, 1.000000000000000000 ) ) ;
#165 = CC_DESIGN_PERSON_AND_ORGANIZATION_ASSIGNMENT ( #9, #175, ( #123 ) ) ;
#166 = ORIENTED_EDGE ( 'NONE', *, *, #11, .F. ) ;
#167 = AXIS2_PLACEMENT_3D ( 'NONE', #71, #99, #41 ) ;
#168 = APPROVAL_DATE_TIME ( #136, #91 ) ;
#169 = FACE_OUTER_BOUND ( 'NONE', #5, .T. ) ;
#170 = CALENDAR_DATE ( 2018, 25, 7 ) ;
#171 = PRODUCT_DEFINITION ( 'UNKNOWN', '', #123, #86 ) ;
#172 = PERSON_AND_ORGANIZATION ( #134, #144 ) ;
#173 = DIRECTION ( 'NONE',  ( 1.000000000000000000, 0.0000000000000000000, 0.0000000000000000000 ) ) ;
#174 = DIRECTION ( 'NONE',  ( -1.000000000000000000, 0.0000000000000000000, 0.0000000000000000000 ) ) ;
#175 = PERSON_AND_ORGANIZATION_ROLE ( 'design_supplier' ) ;
ENDSEC;
END-ISO-10303-21;
