ISO-10303-21;
HEADER;
FILE_DESCRIPTION (( 'STEP AP203' ),
    '1' );
FILE_NAME ('Web Model 43848_49572.step',
    '2018-03-12T20:51:15',
    ( '' ),
    ( '' ),
    'SwSTEP 2.0',
    'SolidWorks 2016',
    '' );
FILE_SCHEMA (( 'CONFIG_CONTROL_DESIGN' ));
ENDSEC;

DATA;
#1 = COORDINATED_UNIVERSAL_TIME_OFFSET ( 5, 0, .BEHIND. ) ;
#2 = ORIENTED_EDGE ( 'NONE', *, *, #35, .T. ) ;
#3 = AXIS2_PLACEMENT_3D ( 'NONE', #40, #163, #24 ) ;
#4 = APPROVAL_DATE_TIME ( #42, #85 ) ;
#5 = COORDINATED_UNIVERSAL_TIME_OFFSET ( 5, 0, .BEHIND. ) ;
#6 = DIRECTION ( 'NONE',  ( -0.0000000000000000000, 1.000000000000000000, -0.0000000000000000000 ) ) ;
#7 = LINE ( 'NONE', #10, #73 ) ;
#8 = DIRECTION ( 'NONE',  ( -0.0000000000000000000, 1.000000000000000000, -0.0000000000000000000 ) ) ;
#9 = LINE ( 'NONE', #211, #48 ) ;
#10 = CARTESIAN_POINT ( 'NONE',  ( 4.750000000000000000, -12.50000000000000000, 12.50000000000000000 ) ) ;
#11 = EDGE_LOOP ( 'NONE', ( #130, #166, #229, #214 ) ) ;
#12 = CALENDAR_DATE ( 2018, 12, 3 ) ;
#13 = CC_DESIGN_PERSON_AND_ORGANIZATION_ASSIGNMENT ( #50, #234, ( #209 ) ) ;
#14 = APPROVAL_PERSON_ORGANIZATION ( #196, #139, #49 ) ;
#15 = LINE ( 'NONE', #111, #217 ) ;
#16 = APPROVAL_STATUS ( 'not_yet_approved' ) ;
#17 = CC_DESIGN_PERSON_AND_ORGANIZATION_ASSIGNMENT ( #104, #218, ( #123 ) ) ;
#18 = PERSON_AND_ORGANIZATION_ROLE ( 'classification_officer' ) ;
#19 = FACE_OUTER_BOUND ( 'NONE', #52, .T. ) ;
#20 = ORIENTED_EDGE ( 'NONE', *, *, #129, .F. ) ;
#21 = CALENDAR_DATE ( 2018, 12, 3 ) ;
#22 = LINE ( 'NONE', #59, #210 ) ;
#23 = ORIENTED_EDGE ( 'NONE', *, *, #178, .F. ) ;
#24 = DIRECTION ( 'NONE',  ( -1.000000000000000000, 0.0000000000000000000, -0.0000000000000000000 ) ) ;
#25 = CC_DESIGN_PERSON_AND_ORGANIZATION_ASSIGNMENT ( #162, #18, ( #92 ) ) ;
#26 = EDGE_LOOP ( 'NONE', ( #144, #103, #43, #219 ) ) ;
#27 = ADVANCED_FACE ( 'NONE', ( #30 ), #225, .F. ) ;
#28 = PRODUCT_RELATED_PRODUCT_CATEGORY ( 'detail', '', ( #99 ) ) ;
#29 = DIRECTION ( 'NONE',  ( 1.000000000000000000, 0.0000000000000000000, 0.0000000000000000000 ) ) ;
#30 = FACE_OUTER_BOUND ( 'NONE', #185, .T. ) ;
#31 = APPROVAL_STATUS ( 'not_yet_approved' ) ;
#32 = CARTESIAN_POINT ( 'NONE',  ( 4.750000000000000000, -12.50000000000000000, 12.50000000000000000 ) ) ;
#33 = COORDINATED_UNIVERSAL_TIME_OFFSET ( 5, 0, .BEHIND. ) ;
#34 = DIRECTION ( 'NONE',  ( 0.0000000000000000000, 0.0000000000000000000, -1.000000000000000000 ) ) ;
#35 = EDGE_CURVE ( 'NONE', #121, #68, #222, .T. ) ;
#36 = VERTEX_POINT ( 'NONE', #91 ) ;
#37 = LOCAL_TIME ( 16, 51, 15.00000000000000000, #118 ) ;
#38 = CARTESIAN_POINT ( 'NONE',  ( 4.750000000000000000, 12.49999999999999300, 12.50000000000000000 ) ) ;
#39 = PLANE ( 'NONE',  #3 ) ;
#40 = CARTESIAN_POINT ( 'NONE',  ( 4.750000000000000000, 12.49999999999999300, 12.50000000000000000 ) ) ;
#41 = CC_DESIGN_DATE_AND_TIME_ASSIGNMENT ( #63, #145, ( #92 ) ) ;
#42 = DATE_AND_TIME ( #12, #37 ) ;
#43 = ORIENTED_EDGE ( 'NONE', *, *, #129, .T. ) ;
#44 = LINE ( 'NONE', #191, #147 ) ;
#45 = ORIENTED_EDGE ( 'NONE', *, *, #47, .F. ) ;
#46 = APPLICATION_CONTEXT ( 'configuration controlled 3d designs of mechanical parts and assemblies' ) ;
#47 = EDGE_CURVE ( 'NONE', #161, #212, #146, .T. ) ;
#48 = VECTOR ( 'NONE', #101, 1000.000000000000000 ) ;
#49 = APPROVAL_ROLE ( '' ) ;
#50 = PERSON_AND_ORGANIZATION ( #124, #86 ) ;
#51 = LINE ( 'NONE', #151, #55 ) ;
#52 = EDGE_LOOP ( 'NONE', ( #23, #194, #87, #110 ) ) ;
#53 = ADVANCED_BREP_SHAPE_REPRESENTATION ( 'Web Model 43848_49572', ( #180, #56 ), #228 ) ;
#54 = DIRECTION ( 'NONE',  ( -1.000000000000000000, -0.0000000000000000000, -0.0000000000000000000 ) ) ;
#55 = VECTOR ( 'NONE', #8, 1000.000000000000000 ) ;
#56 = AXIS2_PLACEMENT_3D ( 'NONE', #107, #232, #29 ) ;
#57 = CARTESIAN_POINT ( 'NONE',  ( 4.750000000000000000, 12.50000000000000000, -12.50000000000000000 ) ) ;
#58 = CALENDAR_DATE ( 2018, 12, 3 ) ;
#59 = CARTESIAN_POINT ( 'NONE',  ( -4.750000000000000000, 12.49999999999999300, 12.50000000000000000 ) ) ;
#60 = ORIENTED_EDGE ( 'NONE', *, *, #177, .T. ) ;
#61 = VECTOR ( 'NONE', #227, 1000.000000000000000 ) ;
#62 = EDGE_LOOP ( 'NONE', ( #223, #152, #138, #204 ) ) ;
#63 = DATE_AND_TIME ( #153, #179 ) ;
#64 = APPROVAL_ROLE ( '' ) ;
#65 = FACE_OUTER_BOUND ( 'NONE', #62, .T. ) ;
#66 = MECHANICAL_CONTEXT ( 'NONE', #158, 'mechanical' ) ;
#67 = CC_DESIGN_APPROVAL ( #198, ( #123 ) ) ;
#68 = VERTEX_POINT ( 'NONE', #170 ) ;
#69 = CARTESIAN_POINT ( 'NONE',  ( -4.750000000000000000, 12.50000000000000000, -12.50000000000000000 ) ) ;
#70 = PLANE ( 'NONE',  #100 ) ;
#71 = VERTEX_POINT ( 'NONE', #113 ) ;
#72 = CARTESIAN_POINT ( 'NONE',  ( 4.750000000000000000, 12.50000000000000000, -12.50000000000000000 ) ) ;
#73 = VECTOR ( 'NONE', #142, 1000.000000000000000 ) ;
#74 = DIRECTION ( 'NONE',  ( 1.000000000000000000, 0.0000000000000000000, 0.0000000000000000000 ) ) ;
#75 = CC_DESIGN_PERSON_AND_ORGANIZATION_ASSIGNMENT ( #231, #182, ( #99 ) ) ;
#76 = DIRECTION ( 'NONE',  ( 0.0000000000000000000, -1.000000000000000000, 0.0000000000000000000 ) ) ;
#77 = ORIENTED_EDGE ( 'NONE', *, *, #132, .T. ) ;
#78 = CC_DESIGN_APPROVAL ( #85, ( #209 ) ) ;
#79 = DESIGN_CONTEXT ( 'detailed design', #46, 'design' ) ;
#80 = FACE_OUTER_BOUND ( 'NONE', #26, .T. ) ;
#81 = CC_DESIGN_DATE_AND_TIME_ASSIGNMENT ( #155, #125, ( #123 ) ) ;
#82 = DIRECTION ( 'NONE',  ( 0.0000000000000000000, -0.0000000000000000000, 1.000000000000000000 ) ) ;
#83 = ORIENTED_EDGE ( 'NONE', *, *, #102, .F. ) ;
#84 = APPLICATION_PROTOCOL_DEFINITION ( 'international standard', 'config_control_design', 1994, #158 ) ;
#85 = APPROVAL ( #16, 'UNSPECIFIED' ) ;
#86 = ORGANIZATION ( 'UNSPECIFIED', 'UNSPECIFIED', '' ) ;
#87 = ORIENTED_EDGE ( 'NONE', *, *, #177, .F. ) ;
#88 = DIRECTION ( 'NONE',  ( -0.0000000000000000000, 0.0000000000000000000, 1.000000000000000000 ) ) ;
#89 = VECTOR ( 'NONE', #167, 1000.000000000000000 ) ;
#90 = CARTESIAN_POINT ( 'NONE',  ( -4.750000000000000000, 0.0000000000000000000, 0.0000000000000000000 ) ) ;
#91 = CARTESIAN_POINT ( 'NONE',  ( -4.750000000000000000, 12.49999999999999300, 12.50000000000000000 ) ) ;
#92 = SECURITY_CLASSIFICATION ( '', '', #127 ) ;
#93 = LOCAL_TIME ( 16, 51, 15.00000000000000000, #1 ) ;
#94 = PLANE ( 'NONE',  #186 ) ;
#95 = VECTOR ( 'NONE', #114, 1000.000000000000000 ) ;
#96 = CARTESIAN_POINT ( 'NONE',  ( -4.750000000000000000, 12.49999999999999300, 12.50000000000000000 ) ) ;
#97 = APPROVAL_PERSON_ORGANIZATION ( #157, #85, #236 ) ;
#98 = FACE_OUTER_BOUND ( 'NONE', #117, .T. ) ;
#99 = PRODUCT ( 'Web Model 43848_49572', 'Web Model 43848_49572', '', ( #66 ) ) ;
#100 = AXIS2_PLACEMENT_3D ( 'NONE', #90, #206, #169 ) ;
#101 = DIRECTION ( 'NONE',  ( -0.0000000000000000000, -2.775557561562891400E-016, 1.000000000000000000 ) ) ;
#102 = EDGE_CURVE ( 'NONE', #71, #121, #215, .T. ) ;
#103 = ORIENTED_EDGE ( 'NONE', *, *, #102, .T. ) ;
#104 = PERSON_AND_ORGANIZATION ( #124, #86 ) ;
#105 = APPROVAL_STATUS ( 'not_yet_approved' ) ;
#106 =( NAMED_UNIT ( * ) SI_UNIT ( $, .STERADIAN. ) SOLID_ANGLE_UNIT ( ) );
#107 = CARTESIAN_POINT ( 'NONE',  ( 0.0000000000000000000, 0.0000000000000000000, 0.0000000000000000000 ) ) ;
#108 = AXIS2_PLACEMENT_3D ( 'NONE', #32, #200, #82 ) ;
#109 = PERSON_AND_ORGANIZATION ( #124, #86 ) ;
#110 = ORIENTED_EDGE ( 'NONE', *, *, #132, .F. ) ;
#111 = CARTESIAN_POINT ( 'NONE',  ( -4.750000000000000000, -12.50000000000000000, 12.50000000000000000 ) ) ;
#112 = CARTESIAN_POINT ( 'NONE',  ( 4.750000000000000000, 12.50000000000000000, -12.50000000000000000 ) ) ;
#113 = CARTESIAN_POINT ( 'NONE',  ( 4.750000000000000000, -12.50000000000000000, 12.50000000000000000 ) ) ;
#114 = DIRECTION ( 'NONE',  ( 0.0000000000000000000, 0.0000000000000000000, -1.000000000000000000 ) ) ;
#115 = DIRECTION ( 'NONE',  ( -1.000000000000000000, -0.0000000000000000000, -0.0000000000000000000 ) ) ;
#116 = LINE ( 'NONE', #72, #150 ) ;
#117 = EDGE_LOOP ( 'NONE', ( #77, #156, #83, #187 ) ) ;
#118 = COORDINATED_UNIVERSAL_TIME_OFFSET ( 5, 0, .BEHIND. ) ;
#119 = EDGE_CURVE ( 'NONE', #175, #36, #44, .T. ) ;
#120 = FACE_OUTER_BOUND ( 'NONE', #11, .T. ) ;
#121 = VERTEX_POINT ( 'NONE', #165 ) ;
#122 = CALENDAR_DATE ( 2018, 12, 3 ) ;
#123 = PRODUCT_DEFINITION ( 'UNKNOWN', '', #209, #79 ) ;
#124 = PERSON ( 'UNSPECIFIED', 'UNSPECIFIED', 'UNSPECIFIED', ('UNSPECIFIED'), ('UNSPECIFIED'), ('UNSPECIFIED') ) ;
#125 = DATE_TIME_ROLE ( 'creation_date' ) ;
#126 = CC_DESIGN_PERSON_AND_ORGANIZATION_ASSIGNMENT ( #109, #128, ( #209 ) ) ;
#127 = SECURITY_CLASSIFICATION_LEVEL ( 'unclassified' ) ;
#128 = PERSON_AND_ORGANIZATION_ROLE ( 'creator' ) ;
#129 = EDGE_CURVE ( 'NONE', #121, #161, #116, .T. ) ;
#130 = ORIENTED_EDGE ( 'NONE', *, *, #178, .T. ) ;
#131 = LOCAL_TIME ( 16, 51, 15.00000000000000000, #5 ) ;
#132 = EDGE_CURVE ( 'NONE', #235, #68, #15, .T. ) ;
#133 = CLOSED_SHELL ( 'NONE', ( #154, #213, #27, #174, #176, #164 ) ) ;
#134 = DIRECTION ( 'NONE',  ( 0.0000000000000000000, -1.000000000000000000, -2.775557561562891400E-016 ) ) ;
#135 = CARTESIAN_POINT ( 'NONE',  ( 4.750000000000000000, 0.0000000000000000000, 0.0000000000000000000 ) ) ;
#136 = APPROVAL_DATE_TIME ( #199, #198 ) ;
#137 = LINE ( 'NONE', #96, #61 ) ;
#138 = ORIENTED_EDGE ( 'NONE', *, *, #189, .F. ) ;
#139 = APPROVAL ( #31, 'UNSPECIFIED' ) ;
#140 = VECTOR ( 'NONE', #54, 1000.000000000000000 ) ;
#141 =( NAMED_UNIT ( * ) PLANE_ANGLE_UNIT ( ) SI_UNIT ( $, .RADIAN. ) );
#142 = DIRECTION ( 'NONE',  ( -1.000000000000000000, -0.0000000000000000000, -0.0000000000000000000 ) ) ;
#143 = EDGE_CURVE ( 'NONE', #175, #71, #181, .T. ) ;
#144 = ORIENTED_EDGE ( 'NONE', *, *, #143, .T. ) ;
#145 = DATE_TIME_ROLE ( 'classification_date' ) ;
#146 = LINE ( 'NONE', #112, #89 ) ;
#147 = VECTOR ( 'NONE', #115, 1000.000000000000000 ) ;
#148 = DIRECTION ( 'NONE',  ( 0.0000000000000000000, -1.000000000000000000, 0.0000000000000000000 ) ) ;
#149 = CARTESIAN_POINT ( 'NONE',  ( 4.750000000000000000, -12.50000000000000000, -12.50000000000000000 ) ) ;
#150 = VECTOR ( 'NONE', #6, 1000.000000000000000 ) ;
#151 = CARTESIAN_POINT ( 'NONE',  ( -4.750000000000000000, 12.50000000000000000, -12.50000000000000000 ) ) ;
#152 = ORIENTED_EDGE ( 'NONE', *, *, #119, .F. ) ;
#153 = CALENDAR_DATE ( 2018, 12, 3 ) ;
#154 = ADVANCED_FACE ( 'NONE', ( #120 ), #39, .F. ) ;
#155 = DATE_AND_TIME ( #58, #93 ) ;
#156 = ORIENTED_EDGE ( 'NONE', *, *, #35, .F. ) ;
#157 = PERSON_AND_ORGANIZATION ( #124, #86 ) ;
#158 = APPLICATION_CONTEXT ( 'configuration controlled 3d designs of mechanical parts and assemblies' ) ;
#159 = CC_DESIGN_APPROVAL ( #139, ( #92 ) ) ;
#160 = PLANE ( 'NONE',  #108 ) ;
#161 = VERTEX_POINT ( 'NONE', #207 ) ;
#162 = PERSON_AND_ORGANIZATION ( #124, #86 ) ;
#163 = DIRECTION ( 'NONE',  ( 0.0000000000000000000, 0.0000000000000000000, -1.000000000000000000 ) ) ;
#164 = ADVANCED_FACE ( 'NONE', ( #19 ), #70, .F. ) ;
#165 = CARTESIAN_POINT ( 'NONE',  ( 4.750000000000000000, -12.50000000000000000, -12.50000000000000000 ) ) ;
#166 = ORIENTED_EDGE ( 'NONE', *, *, #237, .F. ) ;
#167 = DIRECTION ( 'NONE',  ( -1.000000000000000000, -0.0000000000000000000, -0.0000000000000000000 ) ) ;
#168 = SHAPE_DEFINITION_REPRESENTATION ( #220, #53 ) ;
#169 = DIRECTION ( 'NONE',  ( 0.0000000000000000000, 0.0000000000000000000, -1.000000000000000000 ) ) ;
#170 = CARTESIAN_POINT ( 'NONE',  ( -4.750000000000000000, -12.50000000000000000, -12.50000000000000000 ) ) ;
#171 = DIRECTION ( 'NONE',  ( 0.0000000000000000000, 2.775557561562891400E-016, -1.000000000000000000 ) ) ;
#172 = LOCAL_TIME ( 16, 51, 15.00000000000000000, #195 ) ;
#173 = VECTOR ( 'NONE', #148, 1000.000000000000000 ) ;
#174 = ADVANCED_FACE ( 'NONE', ( #65 ), #224, .F. ) ;
#175 = VERTEX_POINT ( 'NONE', #38 ) ;
#176 = ADVANCED_FACE ( 'NONE', ( #80 ), #94, .T. ) ;
#177 = EDGE_CURVE ( 'NONE', #68, #212, #51, .T. ) ;
#178 = EDGE_CURVE ( 'NONE', #36, #235, #22, .T. ) ;
#179 = LOCAL_TIME ( 16, 51, 15.00000000000000000, #33 ) ;
#180 = MANIFOLD_SOLID_BREP ( 'Boss-Extrude1', #133 ) ;
#181 = LINE ( 'NONE', #188, #173 ) ;
#182 = PERSON_AND_ORGANIZATION_ROLE ( 'design_owner' ) ;
#183 = EDGE_CURVE ( 'NONE', #212, #36, #137, .T. ) ;
#184 = APPLICATION_PROTOCOL_DEFINITION ( 'international standard', 'config_control_design', 1994, #46 ) ;
#185 = EDGE_LOOP ( 'NONE', ( #60, #45, #20, #2 ) ) ;
#186 = AXIS2_PLACEMENT_3D ( 'NONE', #135, #193, #226 ) ;
#187 = ORIENTED_EDGE ( 'NONE', *, *, #237, .T. ) ;
#188 = CARTESIAN_POINT ( 'NONE',  ( 4.750000000000000000, 12.49999999999999300, 12.50000000000000000 ) ) ;
#189 = EDGE_CURVE ( 'NONE', #161, #175, #9, .T. ) ;
#190 = CARTESIAN_POINT ( 'NONE',  ( 4.750000000000000000, -12.50000000000000000, 12.50000000000000000 ) ) ;
#191 = CARTESIAN_POINT ( 'NONE',  ( 4.750000000000000000, 12.49999999999999300, 12.50000000000000000 ) ) ;
#192 = APPROVAL_DATE_TIME ( #201, #139 ) ;
#193 = DIRECTION ( 'NONE',  ( 1.000000000000000000, 0.0000000000000000000, 0.0000000000000000000 ) ) ;
#194 = ORIENTED_EDGE ( 'NONE', *, *, #183, .F. ) ;
#195 = COORDINATED_UNIVERSAL_TIME_OFFSET ( 5, 0, .BEHIND. ) ;
#196 = PERSON_AND_ORGANIZATION ( #124, #86 ) ;
#197 = UNCERTAINTY_MEASURE_WITH_UNIT (LENGTH_MEASURE( 1.000000000000000100E-005 ), #216, 'distance_accuracy_value', 'NONE');
#198 = APPROVAL ( #105, 'UNSPECIFIED' ) ;
#199 = DATE_AND_TIME ( #122, #131 ) ;
#200 = DIRECTION ( 'NONE',  ( -0.0000000000000000000, 1.000000000000000000, 0.0000000000000000000 ) ) ;
#201 = DATE_AND_TIME ( #21, #172 ) ;
#202 = PERSON_AND_ORGANIZATION ( #124, #86 ) ;
#203 = AXIS2_PLACEMENT_3D ( 'NONE', #208, #134, #171 ) ;
#204 = ORIENTED_EDGE ( 'NONE', *, *, #47, .T. ) ;
#205 = AXIS2_PLACEMENT_3D ( 'NONE', #57, #88, #74 ) ;
#206 = DIRECTION ( 'NONE',  ( 1.000000000000000000, 0.0000000000000000000, 0.0000000000000000000 ) ) ;
#207 = CARTESIAN_POINT ( 'NONE',  ( 4.750000000000000000, 12.50000000000000000, -12.50000000000000000 ) ) ;
#208 = CARTESIAN_POINT ( 'NONE',  ( 4.750000000000000000, 12.49999999999999300, 12.50000000000000000 ) ) ;
#209 = PRODUCT_DEFINITION_FORMATION_WITH_SPECIFIED_SOURCE ( 'ANY', '', #99, .NOT_KNOWN. ) ;
#210 = VECTOR ( 'NONE', #76, 1000.000000000000000 ) ;
#211 = CARTESIAN_POINT ( 'NONE',  ( 4.750000000000000000, 12.49999999999999300, 12.50000000000000000 ) ) ;
#212 = VERTEX_POINT ( 'NONE', #69 ) ;
#213 = ADVANCED_FACE ( 'NONE', ( #98 ), #160, .F. ) ;
#214 = ORIENTED_EDGE ( 'NONE', *, *, #119, .T. ) ;
#215 = LINE ( 'NONE', #190, #95 ) ;
#216 =( LENGTH_UNIT ( ) NAMED_UNIT ( * ) SI_UNIT ( .MILLI., .METRE. ) );
#217 = VECTOR ( 'NONE', #34, 1000.000000000000000 ) ;
#218 = PERSON_AND_ORGANIZATION_ROLE ( 'creator' ) ;
#219 = ORIENTED_EDGE ( 'NONE', *, *, #189, .T. ) ;
#220 = PRODUCT_DEFINITION_SHAPE ( 'NONE', 'NONE',  #123 ) ;
#221 = APPROVAL_PERSON_ORGANIZATION ( #202, #198, #64 ) ;
#222 = LINE ( 'NONE', #149, #140 ) ;
#223 = ORIENTED_EDGE ( 'NONE', *, *, #183, .T. ) ;
#224 = PLANE ( 'NONE',  #203 ) ;
#225 = PLANE ( 'NONE',  #205 ) ;
#226 = DIRECTION ( 'NONE',  ( 0.0000000000000000000, 0.0000000000000000000, -1.000000000000000000 ) ) ;
#227 = DIRECTION ( 'NONE',  ( -0.0000000000000000000, -2.775557561562891400E-016, 1.000000000000000000 ) ) ;
#228 =( GEOMETRIC_REPRESENTATION_CONTEXT ( 3 ) GLOBAL_UNCERTAINTY_ASSIGNED_CONTEXT ( ( #197 ) ) GLOBAL_UNIT_ASSIGNED_CONTEXT ( ( #216, #141, #106 ) ) REPRESENTATION_CONTEXT ( 'NONE', 'WORKASPACE' ) );
#229 = ORIENTED_EDGE ( 'NONE', *, *, #143, .F. ) ;
#230 = CC_DESIGN_SECURITY_CLASSIFICATION ( #92, ( #209 ) ) ;
#231 = PERSON_AND_ORGANIZATION ( #124, #86 ) ;
#232 = DIRECTION ( 'NONE',  ( 0.0000000000000000000, 0.0000000000000000000, 1.000000000000000000 ) ) ;
#233 = CARTESIAN_POINT ( 'NONE',  ( -4.750000000000000000, -12.50000000000000000, 12.50000000000000000 ) ) ;
#234 = PERSON_AND_ORGANIZATION_ROLE ( 'design_supplier' ) ;
#235 = VERTEX_POINT ( 'NONE', #233 ) ;
#236 = APPROVAL_ROLE ( '' ) ;
#237 = EDGE_CURVE ( 'NONE', #71, #235, #7, .T. ) ;
ENDSEC;
END-ISO-10303-21;
