ISO-10303-21;
HEADER;
FILE_DESCRIPTION (( 'STEP AP203' ),
    '1' );
FILE_NAME ('Web Model 19841_19890.step',
    '2022-04-06T15:19:47',
    ( 'WC' ),
    ( 'Windows Central' ),
    'SwSTEP 2.0',
    'SolidWorks 2021',
    '' );
FILE_SCHEMA (( 'CONFIG_CONTROL_DESIGN' ));
ENDSEC;

DATA;
#1 = APPROVAL_DATE_TIME ( #161, #44 ) ;
#2 = DIRECTION ( 'NONE',  ( 1.000000000000000000, 0.000000000000000000, -0.000000000000000000 ) ) ;
#3 = DATE_AND_TIME ( #103, #119 ) ;
#4 = CALENDAR_DATE ( 2022, 6, 4 ) ;
#5 = DIRECTION ( 'NONE',  ( 1.000000000000000000, 0.000000000000000000, 0.000000000000000000 ) ) ;
#6 = VECTOR ( 'NONE', #83, 1000.000000000000000 ) ;
#7 = APPROVAL_STATUS ( 'not_yet_approved' ) ;
#8 = PRODUCT_DEFINITION_FORMATION_WITH_SPECIFIED_SOURCE ( 'ANY', '', #124, .NOT_KNOWN. ) ;
#9 = VERTEX_POINT ( 'NONE', #153 ) ;
#10 = ADVANCED_FACE ( 'NONE', ( #43 ), #18, .T. ) ;
#11 = DIRECTION ( 'NONE',  ( -1.000000000000000000, 0.000000000000000000, 0.000000000000000000 ) ) ;
#12 = DIRECTION ( 'NONE',  ( 1.000000000000000000, 0.000000000000000000, 0.000000000000000000 ) ) ;
#13 = AXIS2_PLACEMENT_3D ( 'NONE', #30, #81, #5 ) ;
#14 = APPROVAL_ROLE ( '' ) ;
#15 = PERSON_AND_ORGANIZATION_ROLE ( 'design_owner' ) ;
#16 = PRODUCT_RELATED_PRODUCT_CATEGORY ( 'detail', '', ( #124 ) ) ;
#17 = DIRECTION ( 'NONE',  ( 0.000000000000000000, 0.000000000000000000, 1.000000000000000000 ) ) ;
#18 = CYLINDRICAL_SURFACE ( 'NONE', #20, 25.00000000000000000 ) ;
#19 = CARTESIAN_POINT ( 'NONE',  ( 0.000000000000000000, 0.000000000000000000, 3.000000000000000000 ) ) ;
#20 = AXIS2_PLACEMENT_3D ( 'NONE', #150, #71, #25 ) ;
#21 = APPLICATION_PROTOCOL_DEFINITION ( 'international standard', 'config_control_design', 1994, #84 ) ;
#22 = COORDINATED_UNIVERSAL_TIME_OFFSET ( 5, 0, .BEHIND. ) ;
#23 = CLOSED_SHELL ( 'NONE', ( #172, #10, #80, #148 ) ) ;
#24 = CIRCLE ( 'NONE', #27, 25.00000000000000000 ) ;
#25 = DIRECTION ( 'NONE',  ( -1.000000000000000000, 0.000000000000000000, 0.000000000000000000 ) ) ;
#26 = ORIENTED_EDGE ( 'NONE', *, *, #28, .T. ) ;
#27 = AXIS2_PLACEMENT_3D ( 'NONE', #35, #50, #160 ) ;
#28 = EDGE_CURVE ( 'NONE', #139, #170, #78, .T. ) ;
#29 = LOCAL_TIME ( 11, 19, 47.00000000000000000, #64 ) ;
#30 = CARTESIAN_POINT ( 'NONE',  ( 0.000000000000000000, 0.000000000000000000, 0.000000000000000000 ) ) ;
#31 = PLANE ( 'NONE',  #112 ) ;
#32 = CYLINDRICAL_SURFACE ( 'NONE', #63, 25.00000000000000000 ) ;
#33 = CARTESIAN_POINT ( 'NONE',  ( 0.000000000000000000, 0.000000000000000000, 3.000000000000000000 ) ) ;
#34 = LINE ( 'NONE', #162, #6 ) ;
#35 = CARTESIAN_POINT ( 'NONE',  ( 0.000000000000000000, 0.000000000000000000, 0.000000000000000000 ) ) ;
#36 = CALENDAR_DATE ( 2022, 6, 4 ) ;
#37 =( GEOMETRIC_REPRESENTATION_CONTEXT ( 3 ) GLOBAL_UNCERTAINTY_ASSIGNED_CONTEXT ( ( #143 ) ) GLOBAL_UNIT_ASSIGNED_CONTEXT ( ( #46, #129, #155 ) ) REPRESENTATION_CONTEXT ( 'NONE', 'WORKASPACE' ) );
#38 = APPROVAL_ROLE ( '' ) ;
#39 = CC_DESIGN_DATE_AND_TIME_ASSIGNMENT ( #53, #105, ( #67 ) ) ;
#40 = PERSON_AND_ORGANIZATION_ROLE ( 'creator' ) ;
#41 = APPROVAL_DATE_TIME ( #102, #158 ) ;
#42 = EDGE_LOOP ( 'NONE', ( #137, #26 ) ) ;
#43 = FACE_OUTER_BOUND ( 'NONE', #142, .T. ) ;
#44 = APPROVAL ( #163, 'UNSPECIFIED' ) ;
#45 = ORIENTED_EDGE ( 'NONE', *, *, #58, .F. ) ;
#46 =( LENGTH_UNIT ( ) NAMED_UNIT ( * ) SI_UNIT ( .MILLI., .METRE. ) );
#47 = EDGE_LOOP ( 'NONE', ( #45, #149 ) ) ;
#48 = LOCAL_TIME ( 11, 19, 47.00000000000000000, #166 ) ;
#49 = FACE_OUTER_BOUND ( 'NONE', #47, .T. ) ;
#50 = DIRECTION ( 'NONE',  ( 0.000000000000000000, 0.000000000000000000, 1.000000000000000000 ) ) ;
#51 = ORGANIZATION ( 'UNSPECIFIED', 'UNSPECIFIED', '' ) ;
#52 = PERSON_AND_ORGANIZATION_ROLE ( 'design_supplier' ) ;
#53 = DATE_AND_TIME ( #56, #48 ) ;
#54 = PERSON_AND_ORGANIZATION ( #79, #51 ) ;
#55 = CIRCLE ( 'NONE', #66, 25.00000000000000000 ) ;
#56 = CALENDAR_DATE ( 2022, 6, 4 ) ;
#57 = ADVANCED_BREP_SHAPE_REPRESENTATION ( 'Web Model 19841_19890', ( #106, #13 ), #37 ) ;
#58 = EDGE_CURVE ( 'NONE', #9, #59, #154, .T. ) ;
#59 = VERTEX_POINT ( 'NONE', #74 ) ;
#60 = APPLICATION_PROTOCOL_DEFINITION ( 'international standard', 'config_control_design', 1994, #110 ) ;
#61 = CARTESIAN_POINT ( 'NONE',  ( 0.000000000000000000, 0.000000000000000000, 0.000000000000000000 ) ) ;
#62 = PERSON_AND_ORGANIZATION ( #79, #51 ) ;
#63 = AXIS2_PLACEMENT_3D ( 'NONE', #33, #126, #11 ) ;
#64 = COORDINATED_UNIVERSAL_TIME_OFFSET ( 5, 0, .BEHIND. ) ;
#65 = PERSON_AND_ORGANIZATION ( #79, #51 ) ;
#66 = AXIS2_PLACEMENT_3D ( 'NONE', #127, #141, #98 ) ;
#67 = PRODUCT_DEFINITION ( 'UNKNOWN', '', #8, #157 ) ;
#68 = PRODUCT_DEFINITION_SHAPE ( 'NONE', 'NONE',  #67 ) ;
#69 = APPROVAL_PERSON_ORGANIZATION ( #85, #158, #14 ) ;
#70 = EDGE_LOOP ( 'NONE', ( #151, #92, #152, #168 ) ) ;
#71 = DIRECTION ( 'NONE',  ( -0.000000000000000000, -0.000000000000000000, -1.000000000000000000 ) ) ;
#72 = CARTESIAN_POINT ( 'NONE',  ( -25.00000000000000000, 0.000000000000000000, 3.000000000000000000 ) ) ;
#73 = CC_DESIGN_PERSON_AND_ORGANIZATION_ASSIGNMENT ( #65, #52, ( #8 ) ) ;
#74 = CARTESIAN_POINT ( 'NONE',  ( 25.00000000000000000, 3.061616997868383043E-15, 0.000000000000000000 ) ) ;
#75 = APPROVAL_PERSON_ORGANIZATION ( #62, #169, #38 ) ;
#76 = COORDINATED_UNIVERSAL_TIME_OFFSET ( 5, 0, .BEHIND. ) ;
#77 = APPROVAL_STATUS ( 'not_yet_approved' ) ;
#78 = CIRCLE ( 'NONE', #140, 25.00000000000000000 ) ;
#79 = PERSON ( 'UNSPECIFIED', 'UNSPECIFIED', 'UNSPECIFIED', ('UNSPECIFIED'), ('UNSPECIFIED'), ('UNSPECIFIED') ) ;
#80 = ADVANCED_FACE ( 'NONE', ( #113 ), #31, .T. ) ;
#81 = DIRECTION ( 'NONE',  ( 0.000000000000000000, 0.000000000000000000, 1.000000000000000000 ) ) ;
#82 = LINE ( 'NONE', #72, #121 ) ;
#83 = DIRECTION ( 'NONE',  ( -0.000000000000000000, -0.000000000000000000, -1.000000000000000000 ) ) ;
#84 = APPLICATION_CONTEXT ( 'configuration controlled 3d designs of mechanical parts and assemblies' ) ;
#85 = PERSON_AND_ORGANIZATION ( #79, #51 ) ;
#86 = CC_DESIGN_APPROVAL ( #44, ( #8 ) ) ;
#87 = PERSON_AND_ORGANIZATION ( #79, #51 ) ;
#88 = PERSON_AND_ORGANIZATION ( #79, #51 ) ;
#89 = CC_DESIGN_PERSON_AND_ORGANIZATION_ASSIGNMENT ( #114, #15, ( #124 ) ) ;
#90 = ORIENTED_EDGE ( 'NONE', *, *, #122, .F. ) ;
#91 = AXIS2_PLACEMENT_3D ( 'NONE', #156, #115, #171 ) ;
#92 = ORIENTED_EDGE ( 'NONE', *, *, #122, .T. ) ;
#93 = ORIENTED_EDGE ( 'NONE', *, *, #136, .T. ) ;
#94 = APPROVAL_PERSON_ORGANIZATION ( #87, #44, #135 ) ;
#95 = DIRECTION ( 'NONE',  ( 0.000000000000000000, 0.000000000000000000, 1.000000000000000000 ) ) ;
#96 = PLANE ( 'NONE',  #91 ) ;
#97 = CC_DESIGN_PERSON_AND_ORGANIZATION_ASSIGNMENT ( #133, #40, ( #8 ) ) ;
#98 = DIRECTION ( 'NONE',  ( 1.000000000000000000, 0.000000000000000000, 0.000000000000000000 ) ) ;
#99 = DIRECTION ( 'NONE',  ( 1.000000000000000000, 0.000000000000000000, 0.000000000000000000 ) ) ;
#100 = SHAPE_DEFINITION_REPRESENTATION ( #68, #57 ) ;
#101 = PERSON_AND_ORGANIZATION_ROLE ( 'classification_officer' ) ;
#102 = DATE_AND_TIME ( #4, #29 ) ;
#103 = CALENDAR_DATE ( 2022, 6, 4 ) ;
#104 = CC_DESIGN_PERSON_AND_ORGANIZATION_ASSIGNMENT ( #88, #101, ( #145 ) ) ;
#105 = DATE_TIME_ROLE ( 'creation_date' ) ;
#106 = MANIFOLD_SOLID_BREP ( 'Boss-Extrude1', #23 ) ;
#107 = CC_DESIGN_APPROVAL ( #169, ( #67 ) ) ;
#108 = ORIENTED_EDGE ( 'NONE', *, *, #58, .T. ) ;
#109 = EDGE_CURVE ( 'NONE', #59, #9, #24, .T. ) ;
#110 = APPLICATION_CONTEXT ( 'configuration controlled 3d designs of mechanical parts and assemblies' ) ;
#111 = DATE_AND_TIME ( #36, #147 ) ;
#112 = AXIS2_PLACEMENT_3D ( 'NONE', #19, #130, #2 ) ;
#113 = FACE_OUTER_BOUND ( 'NONE', #42, .T. ) ;
#114 = PERSON_AND_ORGANIZATION ( #79, #51 ) ;
#115 = DIRECTION ( 'NONE',  ( 0.000000000000000000, 0.000000000000000000, 1.000000000000000000 ) ) ;
#116 = MECHANICAL_CONTEXT ( 'NONE', #110, 'mechanical' ) ;
#117 = CALENDAR_DATE ( 2022, 6, 4 ) ;
#118 = CC_DESIGN_DATE_AND_TIME_ASSIGNMENT ( #111, #120, ( #145 ) ) ;
#119 = LOCAL_TIME ( 11, 19, 47.00000000000000000, #22 ) ;
#120 = DATE_TIME_ROLE ( 'classification_date' ) ;
#121 = VECTOR ( 'NONE', #144, 1000.000000000000000 ) ;
#122 = EDGE_CURVE ( 'NONE', #139, #59, #34, .T. ) ;
#123 = CC_DESIGN_SECURITY_CLASSIFICATION ( #145, ( #8 ) ) ;
#124 = PRODUCT ( 'Web Model 19841_19890', 'Web Model 19841_19890', '', ( #116 ) ) ;
#125 = ORIENTED_EDGE ( 'NONE', *, *, #167, .F. ) ;
#126 = DIRECTION ( 'NONE',  ( -0.000000000000000000, -0.000000000000000000, -1.000000000000000000 ) ) ;
#127 = CARTESIAN_POINT ( 'NONE',  ( 0.000000000000000000, 0.000000000000000000, 3.000000000000000000 ) ) ;
#128 = AXIS2_PLACEMENT_3D ( 'NONE', #61, #95, #99 ) ;
#129 =( NAMED_UNIT ( * ) PLANE_ANGLE_UNIT ( ) SI_UNIT ( $, .RADIAN. ) );
#130 = DIRECTION ( 'NONE',  ( 0.000000000000000000, 0.000000000000000000, 1.000000000000000000 ) ) ;
#131 = APPROVAL_DATE_TIME ( #3, #169 ) ;
#132 = CC_DESIGN_APPROVAL ( #158, ( #145 ) ) ;
#133 = PERSON_AND_ORGANIZATION ( #79, #51 ) ;
#134 = CC_DESIGN_PERSON_AND_ORGANIZATION_ASSIGNMENT ( #54, #146, ( #67 ) ) ;
#135 = APPROVAL_ROLE ( '' ) ;
#136 = EDGE_CURVE ( 'NONE', #170, #9, #82, .T. ) ;
#137 = ORIENTED_EDGE ( 'NONE', *, *, #167, .T. ) ;
#138 = CARTESIAN_POINT ( 'NONE',  ( 0.000000000000000000, 0.000000000000000000, 3.000000000000000000 ) ) ;
#139 = VERTEX_POINT ( 'NONE', #174 ) ;
#140 = AXIS2_PLACEMENT_3D ( 'NONE', #138, #17, #12 ) ;
#141 = DIRECTION ( 'NONE',  ( 0.000000000000000000, 0.000000000000000000, 1.000000000000000000 ) ) ;
#142 = EDGE_LOOP ( 'NONE', ( #90, #125, #93, #108 ) ) ;
#143 = UNCERTAINTY_MEASURE_WITH_UNIT (LENGTH_MEASURE( 1.000000000000000082E-05 ), #46, 'distance_accuracy_value', 'NONE');
#144 = DIRECTION ( 'NONE',  ( -0.000000000000000000, -0.000000000000000000, -1.000000000000000000 ) ) ;
#145 = SECURITY_CLASSIFICATION ( '', '', #164 ) ;
#146 = PERSON_AND_ORGANIZATION_ROLE ( 'creator' ) ;
#147 = LOCAL_TIME ( 11, 19, 47.00000000000000000, #76 ) ;
#148 = ADVANCED_FACE ( 'NONE', ( #49 ), #96, .F. ) ;
#149 = ORIENTED_EDGE ( 'NONE', *, *, #109, .F. ) ;
#150 = CARTESIAN_POINT ( 'NONE',  ( 0.000000000000000000, 0.000000000000000000, 3.000000000000000000 ) ) ;
#151 = ORIENTED_EDGE ( 'NONE', *, *, #28, .F. ) ;
#152 = ORIENTED_EDGE ( 'NONE', *, *, #109, .T. ) ;
#153 = CARTESIAN_POINT ( 'NONE',  ( -25.00000000000000000, 0.000000000000000000, 0.000000000000000000 ) ) ;
#154 = CIRCLE ( 'NONE', #128, 25.00000000000000000 ) ;
#155 =( NAMED_UNIT ( * ) SI_UNIT ( $, .STERADIAN. ) SOLID_ANGLE_UNIT ( ) );
#156 = CARTESIAN_POINT ( 'NONE',  ( 0.000000000000000000, 0.000000000000000000, 0.000000000000000000 ) ) ;
#157 = DESIGN_CONTEXT ( 'detailed design', #84, 'design' ) ;
#158 = APPROVAL ( #77, 'UNSPECIFIED' ) ;
#159 = FACE_OUTER_BOUND ( 'NONE', #70, .T. ) ;
#160 = DIRECTION ( 'NONE',  ( 1.000000000000000000, 0.000000000000000000, 0.000000000000000000 ) ) ;
#161 = DATE_AND_TIME ( #117, #173 ) ;
#162 = CARTESIAN_POINT ( 'NONE',  ( 25.00000000000000000, 3.061616997868383043E-15, 3.000000000000000000 ) ) ;
#163 = APPROVAL_STATUS ( 'not_yet_approved' ) ;
#164 = SECURITY_CLASSIFICATION_LEVEL ( 'unclassified' ) ;
#165 = COORDINATED_UNIVERSAL_TIME_OFFSET ( 5, 0, .BEHIND. ) ;
#166 = COORDINATED_UNIVERSAL_TIME_OFFSET ( 5, 0, .BEHIND. ) ;
#167 = EDGE_CURVE ( 'NONE', #170, #139, #55, .T. ) ;
#168 = ORIENTED_EDGE ( 'NONE', *, *, #136, .F. ) ;
#169 = APPROVAL ( #7, 'UNSPECIFIED' ) ;
#170 = VERTEX_POINT ( 'NONE', #175 ) ;
#171 = DIRECTION ( 'NONE',  ( 1.000000000000000000, 0.000000000000000000, -0.000000000000000000 ) ) ;
#172 = ADVANCED_FACE ( 'NONE', ( #159 ), #32, .T. ) ;
#173 = LOCAL_TIME ( 11, 19, 47.00000000000000000, #165 ) ;
#174 = CARTESIAN_POINT ( 'NONE',  ( 25.00000000000000000, 3.061616997868383043E-15, 3.000000000000000000 ) ) ;
#175 = CARTESIAN_POINT ( 'NONE',  ( -25.00000000000000000, 0.000000000000000000, 3.000000000000000000 ) ) ;
ENDSEC;
END-ISO-10303-21;
