ISO-10303-21;
HEADER;
FILE_DESCRIPTION (( 'STEP AP203' ),
    '1' );
FILE_NAME ('Web Model 68528_19720.step',
    '2021-10-06T19:40:53',
    ( '' ),
    ( '' ),
    'SwSTEP 2.0',
    'SolidWorks 2018',
    '' );
FILE_SCHEMA (( 'CONFIG_CONTROL_DESIGN' ));
ENDSEC;

DATA;
#1 = VERTEX_POINT ( 'NONE', #144 ) ;
#2 = CARTESIAN_POINT ( 'NONE',  ( 0.000000000000000000, 0.000000000000000000, 0.000000000000000000 ) ) ;
#3 = DIRECTION ( 'NONE',  ( 0.000000000000000000, 1.000000000000000000, 0.000000000000000000 ) ) ;
#4 = DIRECTION ( 'NONE',  ( -0.000000000000000000, -1.000000000000000000, -0.000000000000000000 ) ) ;
#5 = CIRCLE ( 'NONE', #89, 38.10000000000000142 ) ;
#6 = DIRECTION ( 'NONE',  ( 0.000000000000000000, 1.000000000000000000, 0.000000000000000000 ) ) ;
#7 = PRODUCT_RELATED_PRODUCT_CATEGORY ( 'detail', '', ( #31 ) ) ;
#8 = DIRECTION ( 'NONE',  ( 1.000000000000000000, 0.000000000000000000, 0.000000000000000000 ) ) ;
#9 = LOCAL_TIME ( 15, 40, 53.00000000000000000, #148 ) ;
#10 = CLOSED_SHELL ( 'NONE', ( #21, #100, #76, #146 ) ) ;
#11 = LOCAL_TIME ( 15, 40, 53.00000000000000000, #131 ) ;
#12 = PERSON_AND_ORGANIZATION ( #17, #16 ) ;
#13 = CC_DESIGN_DATE_AND_TIME_ASSIGNMENT ( #137, #23, ( #149 ) ) ;
#14 = ORIENTED_EDGE ( 'NONE', *, *, #138, .F. ) ;
#15 = APPROVAL_DATE_TIME ( #159, #32 ) ;
#16 = ORGANIZATION ( 'UNSPECIFIED', 'UNSPECIFIED', '' ) ;
#17 = PERSON ( 'UNSPECIFIED', 'UNSPECIFIED', 'UNSPECIFIED', ('UNSPECIFIED'), ('UNSPECIFIED'), ('UNSPECIFIED') ) ;
#18 = CARTESIAN_POINT ( 'NONE',  ( 4.665904304751416087E-15, 3.000000000000000000, 38.10000000000000142 ) ) ;
#19 =( NAMED_UNIT ( * ) PLANE_ANGLE_UNIT ( ) SI_UNIT ( $, .RADIAN. ) );
#20 = PERSON_AND_ORGANIZATION ( #17, #16 ) ;
#21 = ADVANCED_FACE ( 'NONE', ( #122 ), #30, .T. ) ;
#22 = CYLINDRICAL_SURFACE ( 'NONE', #68, 38.10000000000000142 ) ;
#23 = DATE_TIME_ROLE ( 'classification_date' ) ;
#24 = PERSON_AND_ORGANIZATION_ROLE ( 'creator' ) ;
#25 = CC_DESIGN_PERSON_AND_ORGANIZATION_ASSIGNMENT ( #67, #80, ( #149 ) ) ;
#26 = LOCAL_TIME ( 15, 40, 53.00000000000000000, #145 ) ;
#27 = VECTOR ( 'NONE', #119, 1000.000000000000000 ) ;
#28 = DATE_AND_TIME ( #135, #11 ) ;
#29 = VECTOR ( 'NONE', #152, 1000.000000000000000 ) ;
#30 = CYLINDRICAL_SURFACE ( 'NONE', #114, 38.10000000000000142 ) ;
#31 = PRODUCT ( 'Web Model 68528_19720', 'Web Model 68528_19720', '', ( #39 ) ) ;
#32 = APPROVAL ( #79, 'UNSPECIFIED' ) ;
#33 = CALENDAR_DATE ( 2021, 6, 10 ) ;
#34 = AXIS2_PLACEMENT_3D ( 'NONE', #95, #3, #62 ) ;
#35 =( NAMED_UNIT ( * ) SI_UNIT ( $, .STERADIAN. ) SOLID_ANGLE_UNIT ( ) );
#36 = DIRECTION ( 'NONE',  ( 0.000000000000000000, -0.000000000000000000, 1.000000000000000000 ) ) ;
#37 = PLANE ( 'NONE',  #129 ) ;
#38 = ORIENTED_EDGE ( 'NONE', *, *, #71, .F. ) ;
#39 = MECHANICAL_CONTEXT ( 'NONE', #63, 'mechanical' ) ;
#40 = CC_DESIGN_SECURITY_CLASSIFICATION ( #149, ( #108 ) ) ;
#41 = PERSON_AND_ORGANIZATION ( #17, #16 ) ;
#42 = EDGE_CURVE ( 'NONE', #49, #111, #105, .T. ) ;
#43 = CC_DESIGN_PERSON_AND_ORGANIZATION_ASSIGNMENT ( #41, #110, ( #108 ) ) ;
#44 =( GEOMETRIC_REPRESENTATION_CONTEXT ( 3 ) GLOBAL_UNCERTAINTY_ASSIGNED_CONTEXT ( ( #104 ) ) GLOBAL_UNIT_ASSIGNED_CONTEXT ( ( #169, #19, #35 ) ) REPRESENTATION_CONTEXT ( 'NONE', 'WORKASPACE' ) );
#45 = COORDINATED_UNIVERSAL_TIME_OFFSET ( 5, 0, .BEHIND. ) ;
#46 = CARTESIAN_POINT ( 'NONE',  ( 0.000000000000000000, 3.000000000000000000, 0.000000000000000000 ) ) ;
#47 = DIRECTION ( 'NONE',  ( 0.000000000000000000, 1.000000000000000000, 0.000000000000000000 ) ) ;
#48 = DIRECTION ( 'NONE',  ( 0.000000000000000000, 0.000000000000000000, 1.000000000000000000 ) ) ;
#49 = VERTEX_POINT ( 'NONE', #140 ) ;
#50 = DIRECTION ( 'NONE',  ( 0.000000000000000000, 0.000000000000000000, -1.000000000000000000 ) ) ;
#51 = LOCAL_TIME ( 15, 40, 53.00000000000000000, #77 ) ;
#52 = EDGE_CURVE ( 'NONE', #1, #165, #174, .T. ) ;
#53 = DESIGN_CONTEXT ( 'detailed design', #98, 'design' ) ;
#54 = FACE_OUTER_BOUND ( 'NONE', #60, .T. ) ;
#55 = APPLICATION_PROTOCOL_DEFINITION ( 'international standard', 'config_control_design', 1994, #98 ) ;
#56 = CC_DESIGN_PERSON_AND_ORGANIZATION_ASSIGNMENT ( #130, #109, ( #31 ) ) ;
#57 = SHAPE_DEFINITION_REPRESENTATION ( #147, #153 ) ;
#58 = ORIENTED_EDGE ( 'NONE', *, *, #52, .F. ) ;
#59 = APPROVAL_DATE_TIME ( #28, #172 ) ;
#60 = EDGE_LOOP ( 'NONE', ( #14, #58 ) ) ;
#61 = CARTESIAN_POINT ( 'NONE',  ( 0.000000000000000000, 3.000000000000000000, 0.000000000000000000 ) ) ;
#62 = DIRECTION ( 'NONE',  ( 0.000000000000000000, 0.000000000000000000, 1.000000000000000000 ) ) ;
#63 = APPLICATION_CONTEXT ( 'configuration controlled 3d designs of mechanical parts and assemblies' ) ;
#64 = PLANE ( 'NONE',  #78 ) ;
#65 = CARTESIAN_POINT ( 'NONE',  ( 0.000000000000000000, 3.000000000000000000, 0.000000000000000000 ) ) ;
#66 = CC_DESIGN_PERSON_AND_ORGANIZATION_ASSIGNMENT ( #12, #24, ( #113 ) ) ;
#67 = PERSON_AND_ORGANIZATION ( #17, #16 ) ;
#68 = AXIS2_PLACEMENT_3D ( 'NONE', #46, #4, #73 ) ;
#69 = ORIENTED_EDGE ( 'NONE', *, *, #128, .T. ) ;
#70 = FACE_OUTER_BOUND ( 'NONE', #139, .T. ) ;
#71 = EDGE_CURVE ( 'NONE', #111, #165, #87, .T. ) ;
#72 = CARTESIAN_POINT ( 'NONE',  ( 0.000000000000000000, 3.000000000000000000, 0.000000000000000000 ) ) ;
#73 = DIRECTION ( 'NONE',  ( 0.000000000000000000, 0.000000000000000000, -1.000000000000000000 ) ) ;
#74 = PERSON_AND_ORGANIZATION ( #17, #16 ) ;
#75 = CARTESIAN_POINT ( 'NONE',  ( 0.000000000000000000, 3.000000000000000000, 0.000000000000000000 ) ) ;
#76 = ADVANCED_FACE ( 'NONE', ( #70 ), #64, .T. ) ;
#77 = COORDINATED_UNIVERSAL_TIME_OFFSET ( 5, 0, .BEHIND. ) ;
#78 = AXIS2_PLACEMENT_3D ( 'NONE', #61, #6, #168 ) ;
#79 = APPROVAL_STATUS ( 'not_yet_approved' ) ;
#80 = PERSON_AND_ORGANIZATION_ROLE ( 'classification_officer' ) ;
#81 = APPROVAL_ROLE ( '' ) ;
#82 = CIRCLE ( 'NONE', #92, 38.10000000000000142 ) ;
#83 = APPROVAL_PERSON_ORGANIZATION ( #88, #172, #161 ) ;
#84 = CC_DESIGN_APPROVAL ( #143, ( #113 ) ) ;
#85 = APPROVAL_PERSON_ORGANIZATION ( #118, #32, #81 ) ;
#86 = AXIS2_PLACEMENT_3D ( 'NONE', #91, #163, #8 ) ;
#87 = LINE ( 'NONE', #158, #27 ) ;
#88 = PERSON_AND_ORGANIZATION ( #17, #16 ) ;
#89 = AXIS2_PLACEMENT_3D ( 'NONE', #72, #94, #166 ) ;
#90 = ORIENTED_EDGE ( 'NONE', *, *, #138, .T. ) ;
#91 = CARTESIAN_POINT ( 'NONE',  ( 0.000000000000000000, 0.000000000000000000, 0.000000000000000000 ) ) ;
#92 = AXIS2_PLACEMENT_3D ( 'NONE', #154, #47, #142 ) ;
#93 = APPROVAL_DATE_TIME ( #127, #143 ) ;
#94 = DIRECTION ( 'NONE',  ( 0.000000000000000000, 1.000000000000000000, 0.000000000000000000 ) ) ;
#95 = CARTESIAN_POINT ( 'NONE',  ( 0.000000000000000000, 0.000000000000000000, 0.000000000000000000 ) ) ;
#96 = APPROVAL_STATUS ( 'not_yet_approved' ) ;
#97 = CC_DESIGN_DATE_AND_TIME_ASSIGNMENT ( #123, #133, ( #113 ) ) ;
#98 = APPLICATION_CONTEXT ( 'configuration controlled 3d designs of mechanical parts and assemblies' ) ;
#99 = CALENDAR_DATE ( 2021, 6, 10 ) ;
#100 = ADVANCED_FACE ( 'NONE', ( #125 ), #22, .T. ) ;
#101 = APPROVAL_ROLE ( '' ) ;
#102 = ORIENTED_EDGE ( 'NONE', *, *, #42, .T. ) ;
#103 = ORIENTED_EDGE ( 'NONE', *, *, #128, .F. ) ;
#104 = UNCERTAINTY_MEASURE_WITH_UNIT (LENGTH_MEASURE( 1.000000000000000082E-05 ), #169, 'distance_accuracy_value', 'NONE');
#105 = CIRCLE ( 'NONE', #112, 38.10000000000000142 ) ;
#106 = CC_DESIGN_APPROVAL ( #32, ( #108 ) ) ;
#107 = ORIENTED_EDGE ( 'NONE', *, *, #52, .T. ) ;
#108 = PRODUCT_DEFINITION_FORMATION_WITH_SPECIFIED_SOURCE ( 'ANY', '', #31, .NOT_KNOWN. ) ;
#109 = PERSON_AND_ORGANIZATION_ROLE ( 'design_owner' ) ;
#110 = PERSON_AND_ORGANIZATION_ROLE ( 'design_supplier' ) ;
#111 = VERTEX_POINT ( 'NONE', #157 ) ;
#112 = AXIS2_PLACEMENT_3D ( 'NONE', #75, #170, #48 ) ;
#113 = PRODUCT_DEFINITION ( 'UNKNOWN', '', #108, #53 ) ;
#114 = AXIS2_PLACEMENT_3D ( 'NONE', #65, #132, #50 ) ;
#115 = MANIFOLD_SOLID_BREP ( 'Extrude1', #10 ) ;
#116 = APPROVAL_PERSON_ORGANIZATION ( #74, #143, #101 ) ;
#117 = CC_DESIGN_PERSON_AND_ORGANIZATION_ASSIGNMENT ( #20, #173, ( #108 ) ) ;
#118 = PERSON_AND_ORGANIZATION ( #17, #16 ) ;
#119 = DIRECTION ( 'NONE',  ( -0.000000000000000000, -1.000000000000000000, -0.000000000000000000 ) ) ;
#120 = DIRECTION ( 'NONE',  ( 0.000000000000000000, 1.000000000000000000, 0.000000000000000000 ) ) ;
#121 = CARTESIAN_POINT ( 'NONE',  ( 0.000000000000000000, 0.000000000000000000, -38.10000000000000142 ) ) ;
#122 = FACE_OUTER_BOUND ( 'NONE', #156, .T. ) ;
#123 = DATE_AND_TIME ( #151, #9 ) ;
#124 = LOCAL_TIME ( 15, 40, 53.00000000000000000, #45 ) ;
#125 = FACE_OUTER_BOUND ( 'NONE', #150, .T. ) ;
#126 = EDGE_CURVE ( 'NONE', #111, #49, #5, .T. ) ;
#127 = DATE_AND_TIME ( #33, #26 ) ;
#128 = EDGE_CURVE ( 'NONE', #49, #1, #136, .T. ) ;
#129 = AXIS2_PLACEMENT_3D ( 'NONE', #2, #120, #36 ) ;
#130 = PERSON_AND_ORGANIZATION ( #17, #16 ) ;
#131 = COORDINATED_UNIVERSAL_TIME_OFFSET ( 5, 0, .BEHIND. ) ;
#132 = DIRECTION ( 'NONE',  ( -0.000000000000000000, -1.000000000000000000, -0.000000000000000000 ) ) ;
#133 = DATE_TIME_ROLE ( 'creation_date' ) ;
#134 = ORIENTED_EDGE ( 'NONE', *, *, #71, .T. ) ;
#135 = CALENDAR_DATE ( 2021, 6, 10 ) ;
#136 = LINE ( 'NONE', #18, #29 ) ;
#137 = DATE_AND_TIME ( #141, #51 ) ;
#138 = EDGE_CURVE ( 'NONE', #165, #1, #82, .T. ) ;
#139 = EDGE_LOOP ( 'NONE', ( #164, #102 ) ) ;
#140 = CARTESIAN_POINT ( 'NONE',  ( 4.665904304751416087E-15, 3.000000000000000000, 38.10000000000000142 ) ) ;
#141 = CALENDAR_DATE ( 2021, 6, 10 ) ;
#142 = DIRECTION ( 'NONE',  ( 0.000000000000000000, 0.000000000000000000, 1.000000000000000000 ) ) ;
#143 = APPROVAL ( #96, 'UNSPECIFIED' ) ;
#144 = CARTESIAN_POINT ( 'NONE',  ( 4.665904304751416087E-15, 0.000000000000000000, 38.10000000000000142 ) ) ;
#145 = COORDINATED_UNIVERSAL_TIME_OFFSET ( 5, 0, .BEHIND. ) ;
#146 = ADVANCED_FACE ( 'NONE', ( #54 ), #37, .F. ) ;
#147 = PRODUCT_DEFINITION_SHAPE ( 'NONE', 'NONE',  #113 ) ;
#148 = COORDINATED_UNIVERSAL_TIME_OFFSET ( 5, 0, .BEHIND. ) ;
#149 = SECURITY_CLASSIFICATION ( '', '', #160 ) ;
#150 = EDGE_LOOP ( 'NONE', ( #103, #171, #134, #90 ) ) ;
#151 = CALENDAR_DATE ( 2021, 6, 10 ) ;
#152 = DIRECTION ( 'NONE',  ( -0.000000000000000000, -1.000000000000000000, -0.000000000000000000 ) ) ;
#153 = ADVANCED_BREP_SHAPE_REPRESENTATION ( 'Web Model 68528_19720', ( #115, #86 ), #44 ) ;
#154 = CARTESIAN_POINT ( 'NONE',  ( 0.000000000000000000, 0.000000000000000000, 0.000000000000000000 ) ) ;
#155 = APPLICATION_PROTOCOL_DEFINITION ( 'international standard', 'config_control_design', 1994, #63 ) ;
#156 = EDGE_LOOP ( 'NONE', ( #167, #69, #107, #38 ) ) ;
#157 = CARTESIAN_POINT ( 'NONE',  ( 0.000000000000000000, 3.000000000000000000, -38.10000000000000142 ) ) ;
#158 = CARTESIAN_POINT ( 'NONE',  ( 0.000000000000000000, 3.000000000000000000, -38.10000000000000142 ) ) ;
#159 = DATE_AND_TIME ( #99, #124 ) ;
#160 = SECURITY_CLASSIFICATION_LEVEL ( 'unclassified' ) ;
#161 = APPROVAL_ROLE ( '' ) ;
#162 = CC_DESIGN_APPROVAL ( #172, ( #149 ) ) ;
#163 = DIRECTION ( 'NONE',  ( 0.000000000000000000, 0.000000000000000000, 1.000000000000000000 ) ) ;
#164 = ORIENTED_EDGE ( 'NONE', *, *, #126, .T. ) ;
#165 = VERTEX_POINT ( 'NONE', #121 ) ;
#166 = DIRECTION ( 'NONE',  ( 0.000000000000000000, 0.000000000000000000, 1.000000000000000000 ) ) ;
#167 = ORIENTED_EDGE ( 'NONE', *, *, #42, .F. ) ;
#168 = DIRECTION ( 'NONE',  ( 0.000000000000000000, -0.000000000000000000, 1.000000000000000000 ) ) ;
#169 =( LENGTH_UNIT ( ) NAMED_UNIT ( * ) SI_UNIT ( .MILLI., .METRE. ) );
#170 = DIRECTION ( 'NONE',  ( 0.000000000000000000, 1.000000000000000000, 0.000000000000000000 ) ) ;
#171 = ORIENTED_EDGE ( 'NONE', *, *, #126, .F. ) ;
#172 = APPROVAL ( #175, 'UNSPECIFIED' ) ;
#173 = PERSON_AND_ORGANIZATION_ROLE ( 'creator' ) ;
#174 = CIRCLE ( 'NONE', #34, 38.10000000000000142 ) ;
#175 = APPROVAL_STATUS ( 'not_yet_approved' ) ;
ENDSEC;
END-ISO-10303-21;
