ISO-10303-21;
HEADER;
FILE_DESCRIPTION (( 'STEP AP214' ),
    '1' );
FILE_NAME ('3438-E0W.STEP',
    '2009-12-21T16:59:18',
    ( ' ' ),
    ( ' ' ),
    'SwSTEP 2.0',
    'SolidWorks 2009',
    '' );
FILE_SCHEMA (( 'AUTOMOTIVE_DESIGN' ));
ENDSEC;

DATA;
#1 = SURFACE_STYLE_FILL_AREA ( #2 ) ;
#2 = FILL_AREA_STYLE ('',( #60 ) ) ;
#3 = MECHANICAL_DESIGN_GEOMETRIC_PRESENTATION_REPRESENTATION (  '', ( #5 ), #100 ) ;
#4 = PRESENTATION_LAYER_ASSIGNMENT (  '', '', ( #5 ) ) ;
#5 = STYLED_ITEM ( 'NONE', ( #6 ), #102 ) ;
#6 = PRESENTATION_STYLE_ASSIGNMENT (( #7 ) ) ;
#7 = SURFACE_STYLE_USAGE ( .BOTH. , #8 ) ;
#8 = SURFACE_SIDE_STYLE ('',( #9 ) ) ;
#9 = SURFACE_STYLE_FILL_AREA ( #10 ) ;
#10 = FILL_AREA_STYLE ('',( #11 ) ) ;
#11 = FILL_AREA_STYLE_COLOUR ( '', #12 ) ;
#12 = COLOUR_RGB ( '',0.9568627450980391500, 0.9490196078431372100, 0.9607843137254902200 ) ;
#13 = CARTESIAN_POINT ( 'NONE',  ( 0.0000000000000000000, 0.0000000000000000000, -5.352714641851661300 ) ) ;
#14 = DIRECTION ( 'NONE',  ( 1.000000000000000000, 0.0000000000000000000, 0.0000000000000000000 ) ) ;
#15 = DIRECTION ( 'NONE',  ( 0.0000000000000000000, -0.0000000000000000000, 1.000000000000000000 ) ) ;
#16 = CARTESIAN_POINT ( 'NONE',  ( 0.0000000000000000000, 7.347880794884119700E-016, -5.352714641851661300 ) ) ;
#17 = AXIS2_PLACEMENT_3D ( 'NONE', #16, #15, #14 ) ;
#18 = ORIENTED_EDGE ( 'NONE', *, *, #128, .T. ) ;
#19 = SURFACE_STYLE_FILL_AREA ( #20 ) ;
#20 = FILL_AREA_STYLE ('',( #21 ) ) ;
#21 = FILL_AREA_STYLE_COLOUR ( '', #29 ) ;
#22 = DIRECTION ( 'NONE',  ( 1.000000000000000000, 0.0000000000000000000, 0.0000000000000000000 ) ) ;
#23 = DIRECTION ( 'NONE',  ( -0.0000000000000000000, -0.0000000000000000000, 1.000000000000000000 ) ) ;
#24 = AXIS2_PLACEMENT_3D ( 'NONE', #28, #23, #22 ) ;
#25 = VERTEX_POINT ( 'NONE', #109 ) ;
#26 = ADVANCED_FACE ( 'NONE', ( #108 ), #42, .T. ) ;
#27 = EDGE_LOOP ( 'NONE', ( #91, #123, #93, #92, #94 ) ) ;
#28 = CARTESIAN_POINT ( 'NONE',  ( 0.0000000000000000000, 0.0000000000000000000, 5.664438628577664200 ) ) ;
#29 = COLOUR_RGB ( '',0.9568627450980391500, 0.9490196078431372100, 0.9607843137254902200 ) ;
#30 = FACE_OUTER_BOUND ( 'NONE', #57, .T. ) ;
#31 = ORIENTED_EDGE ( 'NONE', *, *, #104, .F. ) ;
#32 = PLANE ( 'NONE',  #17 ) ;
#33 =( GEOMETRIC_REPRESENTATION_CONTEXT ( 3 ) GLOBAL_UNCERTAINTY_ASSIGNED_CONTEXT ( ( #120 ) ) GLOBAL_UNIT_ASSIGNED_CONTEXT ( ( #99, #98, #56 ) ) REPRESENTATION_CONTEXT ( 'NONE', 'WORKASPACE' ) );
#34 =( NAMED_UNIT ( * ) SI_UNIT ( $, .STERADIAN. ) SOLID_ANGLE_UNIT ( ) );
#35 = MECHANICAL_DESIGN_GEOMETRIC_PRESENTATION_REPRESENTATION (  '', ( #37 ), #33 ) ;
#36 = PRESENTATION_LAYER_ASSIGNMENT (  '', '', ( #37 ) ) ;
#37 = STYLED_ITEM ( 'NONE', ( #38 ), #48 ) ;
#38 = PRESENTATION_STYLE_ASSIGNMENT (( #39 ) ) ;
#39 = SURFACE_STYLE_USAGE ( .BOTH. , #40 ) ;
#40 = SURFACE_SIDE_STYLE ('',( #19 ) ) ;
#41 =( NAMED_UNIT ( * ) PLANE_ANGLE_UNIT ( ) SI_UNIT ( $, .RADIAN. ) );
#42 = CYLINDRICAL_SURFACE ( 'NONE', #24, 25.39999999999999900 ) ;
#43 = DIRECTION ( 'NONE',  ( 0.0000000000000000000, 0.0000000000000000000, -1.000000000000000000 ) ) ;
#44 = DIRECTION ( 'NONE',  ( 1.000000000000000000, 0.0000000000000000000, 0.0000000000000000000 ) ) ;
#45 = CARTESIAN_POINT ( 'NONE',  ( 0.0000000000000000000, 0.0000000000000000000, 50.10728535814833900 ) ) ;
#46 = AXIS2_PLACEMENT_3D ( 'NONE', #45, #44, #43 ) ;
#47 = CIRCLE ( 'NONE', #46, 51.46000000000000800 ) ;
#48 = ADVANCED_FACE ( 'NONE', ( #30 ), #32, .F. ) ;
#49 = ORIENTED_EDGE ( 'NONE', *, *, #50, .F. ) ;
#50 = EDGE_CURVE ( 'NONE', #106, #105, #88, .T. ) ;
#51 = PRESENTATION_LAYER_ASSIGNMENT (  '', '', ( #52 ) ) ;
#52 = STYLED_ITEM ( 'NONE', ( #53 ), #26 ) ;
#53 = PRESENTATION_STYLE_ASSIGNMENT (( #54 ) ) ;
#54 = SURFACE_STYLE_USAGE ( .BOTH. , #55 ) ;
#55 = SURFACE_SIDE_STYLE ('',( #132 ) ) ;
#56 =( NAMED_UNIT ( * ) SI_UNIT ( $, .STERADIAN. ) SOLID_ANGLE_UNIT ( ) );
#57 = EDGE_LOOP ( 'NONE', ( #31, #49 ) ) ;
#58 = ORIENTED_EDGE ( 'NONE', *, *, #59, .F. ) ;
#59 = EDGE_CURVE ( 'NONE', #105, #25, #113, .T. ) ;
#60 = FILL_AREA_STYLE_COLOUR ( '', #61 ) ;
#61 = COLOUR_RGB ( '',0.9568627450980391500, 0.9490196078431372100, 0.9607843137254902200 ) ;
#62 = FACE_OUTER_BOUND ( 'NONE', #95, .T. ) ;
#63 = CARTESIAN_POINT ( 'NONE',  ( -25.39999999999999900, 3.110500138708838200E-015, -5.352714641851661300 ) ) ;
#64 = CARTESIAN_POINT ( 'NONE',  ( 25.39999999999999900, 0.0000000000000000000, -5.352714641851661300 ) ) ;
#65 = DIRECTION ( 'NONE',  ( 1.000000000000000000, 0.0000000000000000000, 0.0000000000000000000 ) ) ;
#66 = DIRECTION ( 'NONE',  ( -0.0000000000000000000, -0.0000000000000000000, 1.000000000000000000 ) ) ;
#67 = CARTESIAN_POINT ( 'NONE',  ( 0.0000000000000000000, 0.0000000000000000000, -5.352714641851661300 ) ) ;
#68 = AXIS2_PLACEMENT_3D ( 'NONE', #67, #66, #65 ) ;
#69 = CIRCLE ( 'NONE', #68, 25.39999999999999900 ) ;
#70 = DIRECTION ( 'NONE',  ( 1.000000000000000000, 0.0000000000000000000, 0.0000000000000000000 ) ) ;
#71 = DIRECTION ( 'NONE',  ( -0.0000000000000000000, -0.0000000000000000000, 1.000000000000000000 ) ) ;
#72 = CARTESIAN_POINT ( 'NONE',  ( 0.0000000000000000000, 0.0000000000000000000, 5.352714641851661300 ) ) ;
#73 = AXIS2_PLACEMENT_3D ( 'NONE', #72, #71, #70 ) ;
#74 = CIRCLE ( 'NONE', #73, 25.39999999999999900 ) ;
#75 = DIRECTION ( 'NONE',  ( 1.000000000000000000, 0.0000000000000000000, 0.0000000000000000000 ) ) ;
#76 = DIRECTION ( 'NONE',  ( -0.0000000000000000000, -0.0000000000000000000, 1.000000000000000000 ) ) ;
#77 = ORIENTED_EDGE ( 'NONE', *, *, #149, .T. ) ;
#78 =( NAMED_UNIT ( * ) SI_UNIT ( $, .STERADIAN. ) SOLID_ANGLE_UNIT ( ) );
#79 =( NAMED_UNIT ( * ) PLANE_ANGLE_UNIT ( ) SI_UNIT ( $, .RADIAN. ) );
#80 =( LENGTH_UNIT ( ) NAMED_UNIT ( * ) SI_UNIT ( .MILLI., .METRE. ) );
#81 = CARTESIAN_POINT ( 'NONE',  ( 0.0000000000000000000, 0.0000000000000000000, 5.664438628577664200 ) ) ;
#82 = AXIS2_PLACEMENT_3D ( 'NONE', #81, #76, #75 ) ;
#83 = CYLINDRICAL_SURFACE ( 'NONE', #82, 25.39999999999999900 ) ;
#84 = EDGE_CURVE ( 'NONE', #146, #89, #47, .T. ) ;
#85 = EDGE_CURVE ( 'NONE', #150, #25, #141, .T. ) ;
#86 = DIRECTION ( 'NONE',  ( -0.0000000000000000000, -0.0000000000000000000, 1.000000000000000000 ) ) ;
#87 = AXIS2_PLACEMENT_3D ( 'NONE', #13, #86, #114 ) ;
#88 = CIRCLE ( 'NONE', #87, 25.39999999999999900 ) ;
#89 = VERTEX_POINT ( 'NONE', #136 ) ;
#90 = EDGE_LOOP ( 'NONE', ( #118, #142, #127, #129, #58 ) ) ;
#91 = ORIENTED_EDGE ( 'NONE', *, *, #143, .F. ) ;
#92 = ORIENTED_EDGE ( 'NONE', *, *, #85, .F. ) ;
#93 = ORIENTED_EDGE ( 'NONE', *, *, #59, .T. ) ;
#94 = ORIENTED_EDGE ( 'NONE', *, *, #131, .F. ) ;
#95 = EDGE_LOOP ( 'NONE', ( #148, #77, #96, #145 ) ) ;
#96 = ORIENTED_EDGE ( 'NONE', *, *, #85, .T. ) ;
#97 = FILL_AREA_STYLE_COLOUR ( '', #107 ) ;
#98 =( NAMED_UNIT ( * ) PLANE_ANGLE_UNIT ( ) SI_UNIT ( $, .RADIAN. ) );
#99 =( LENGTH_UNIT ( ) NAMED_UNIT ( * ) SI_UNIT ( .MILLI., .METRE. ) );
#100 =( GEOMETRIC_REPRESENTATION_CONTEXT ( 3 ) GLOBAL_UNCERTAINTY_ASSIGNED_CONTEXT ( ( #101 ) ) GLOBAL_UNIT_ASSIGNED_CONTEXT ( ( #80, #79, #78 ) ) REPRESENTATION_CONTEXT ( 'NONE', 'WORKASPACE' ) );
#101 = UNCERTAINTY_MEASURE_WITH_UNIT (LENGTH_MEASURE( 1.000000000000000100E-005 ), #80, 'distance_accuracy_value', 'NONE');
#102 = ADVANCED_FACE ( 'NONE', ( #135 ), #83, .T. ) ;
#103 = EDGE_CURVE ( 'NONE', #25, #89, #74, .T. ) ;
#104 = EDGE_CURVE ( 'NONE', #105, #106, #69, .T. ) ;
#105 = VERTEX_POINT ( 'NONE', #64 ) ;
#106 = VERTEX_POINT ( 'NONE', #63 ) ;
#107 = COLOUR_RGB ( '',0.9568627450980391500, 0.9490196078431372100, 0.9607843137254902200 ) ;
#108 = FACE_OUTER_BOUND ( 'NONE', #27, .T. ) ;
#109 = CARTESIAN_POINT ( 'NONE',  ( 25.39999999999999900, 0.0000000000000000000, 5.352714641851661300 ) ) ;
#110 = DIRECTION ( 'NONE',  ( -0.0000000000000000000, -0.0000000000000000000, 1.000000000000000000 ) ) ;
#111 = VECTOR ( 'NONE', #110, 1000.000000000000000 ) ;
#112 = CARTESIAN_POINT ( 'NONE',  ( 25.39999999999999900, 0.0000000000000000000, 5.664438628577664200 ) ) ;
#113 = LINE ( 'NONE', #112, #111 ) ;
#114 = DIRECTION ( 'NONE',  ( 1.000000000000000000, 0.0000000000000000000, 0.0000000000000000000 ) ) ;
#115 = EDGE_LOOP ( 'NONE', ( #124, #147, #18, #117 ) ) ;
#116 =( GEOMETRIC_REPRESENTATION_CONTEXT ( 3 ) GLOBAL_UNCERTAINTY_ASSIGNED_CONTEXT ( ( #121 ) ) GLOBAL_UNIT_ASSIGNED_CONTEXT ( ( #125, #41, #34 ) ) REPRESENTATION_CONTEXT ( 'NONE', 'WORKASPACE' ) );
#117 = ORIENTED_EDGE ( 'NONE', *, *, #131, .T. ) ;
#118 = ORIENTED_EDGE ( 'NONE', *, *, #104, .T. ) ;
#119 = ADVANCED_FACE ( 'NONE', ( #62 ), #245, .F. ) ;
#120 = UNCERTAINTY_MEASURE_WITH_UNIT (LENGTH_MEASURE( 1.000000000000000100E-005 ), #99, 'distance_accuracy_value', 'NONE');
#121 = UNCERTAINTY_MEASURE_WITH_UNIT (LENGTH_MEASURE( 1.000000000000000100E-005 ), #125, 'distance_accuracy_value', 'NONE');
#122 = CLOSED_SHELL ( 'NONE', ( #102, #119, #130, #48, #26 ) ) ;
#123 = ORIENTED_EDGE ( 'NONE', *, *, #50, .T. ) ;
#124 = ORIENTED_EDGE ( 'NONE', *, *, #149, .F. ) ;
#125 =( LENGTH_UNIT ( ) NAMED_UNIT ( * ) SI_UNIT ( .MILLI., .METRE. ) );
#126 = MECHANICAL_DESIGN_GEOMETRIC_PRESENTATION_REPRESENTATION (  '', ( #52 ), #116 ) ;
#127 = ORIENTED_EDGE ( 'NONE', *, *, #128, .F. ) ;
#128 = EDGE_CURVE ( 'NONE', #89, #144, #155, .T. ) ;
#129 = ORIENTED_EDGE ( 'NONE', *, *, #103, .F. ) ;
#130 = ADVANCED_FACE ( 'NONE', ( #231 ), #221, .F. ) ;
#131 = EDGE_CURVE ( 'NONE', #144, #150, #211, .T. ) ;
#132 = SURFACE_STYLE_FILL_AREA ( #133 ) ;
#133 = FILL_AREA_STYLE ('',( #97 ) ) ;
#134 = MANIFOLD_SOLID_BREP ( 'NONE', #122 ) ;
#135 = FACE_OUTER_BOUND ( 'NONE', #90, .T. ) ;
#136 = CARTESIAN_POINT ( 'NONE',  ( 0.0000000000000000000, 25.40000000000000600, 5.352714641851658700 ) ) ;
#137 = DIRECTION ( 'NONE',  ( 1.000000000000000000, 0.0000000000000000000, 0.0000000000000000000 ) ) ;
#138 = DIRECTION ( 'NONE',  ( -0.0000000000000000000, -0.0000000000000000000, 1.000000000000000000 ) ) ;
#139 = CARTESIAN_POINT ( 'NONE',  ( 0.0000000000000000000, 0.0000000000000000000, 5.352714641851661300 ) ) ;
#140 = AXIS2_PLACEMENT_3D ( 'NONE', #139, #138, #137 ) ;
#141 = CIRCLE ( 'NONE', #140, 25.39999999999999900 ) ;
#142 = ORIENTED_EDGE ( 'NONE', *, *, #143, .T. ) ;
#143 = EDGE_CURVE ( 'NONE', #106, #144, #228, .T. ) ;
#144 = VERTEX_POINT ( 'NONE', #224 ) ;
#145 = ORIENTED_EDGE ( 'NONE', *, *, #103, .T. ) ;
#146 = VERTEX_POINT ( 'NONE', #223 ) ;
#147 = ORIENTED_EDGE ( 'NONE', *, *, #84, .T. ) ;
#148 = ORIENTED_EDGE ( 'NONE', *, *, #84, .F. ) ;
#149 = EDGE_CURVE ( 'NONE', #146, #150, #200, .T. ) ;
#150 = VERTEX_POINT ( 'NONE', #195 ) ;
#151 = STYLED_ITEM ( 'NONE', ( #201 ), #119 ) ;
#152 = DIRECTION ( 'NONE',  ( -0.0000000000000000000, -0.0000000000000000000, 1.000000000000000000 ) ) ;
#153 = CARTESIAN_POINT ( 'NONE',  ( 0.0000000000000000000, 0.0000000000000000000, 5.352714641851661300 ) ) ;
#154 = AXIS2_PLACEMENT_3D ( 'NONE', #153, #152, #219 ) ;
#155 = CIRCLE ( 'NONE', #154, 25.39999999999999900 ) ;
#156 =( NAMED_UNIT ( * ) SI_UNIT ( $, .STERADIAN. ) SOLID_ANGLE_UNIT ( ) );
#157 = PRESENTATION_LAYER_ASSIGNMENT (  '', '', ( #158 ) ) ;
#158 = STYLED_ITEM ( 'NONE', ( #159 ), #212 ) ;
#159 = PRESENTATION_STYLE_ASSIGNMENT (( #160 ) ) ;
#160 = SURFACE_STYLE_USAGE ( .BOTH. , #161 ) ;
#161 = SURFACE_SIDE_STYLE ('',( #162 ) ) ;
#162 = SURFACE_STYLE_FILL_AREA ( #163 ) ;
#163 = FILL_AREA_STYLE ('',( #164 ) ) ;
#164 = FILL_AREA_STYLE_COLOUR ( '', #165 ) ;
#165 = COLOUR_RGB ( '',0.7960784313725489700, 0.8235294117647058400, 0.9372549019607843100 ) ;
#166 = STYLED_ITEM ( 'NONE', ( #167 ), #134 ) ;
#167 = PRESENTATION_STYLE_ASSIGNMENT (( #168 ) ) ;
#168 = SURFACE_STYLE_USAGE ( .BOTH. , #169 ) ;
#169 = SURFACE_SIDE_STYLE ('',( #170 ) ) ;
#170 = SURFACE_STYLE_FILL_AREA ( #171 ) ;
#171 = FILL_AREA_STYLE ('',( #186 ) ) ;
#172 = COLOUR_RGB ( '',0.7960784313725489700, 0.8235294117647058400, 0.9372549019607843100 ) ;
#173 = DIRECTION ( 'NONE',  ( 1.000000000000000000, 0.0000000000000000000, 0.0000000000000000000 ) ) ;
#174 = DIRECTION ( 'NONE',  ( -0.0000000000000000000, -0.0000000000000000000, 1.000000000000000000 ) ) ;
#175 =( NAMED_UNIT ( * ) PLANE_ANGLE_UNIT ( ) SI_UNIT ( $, .RADIAN. ) );
#176 = DIRECTION ( 'NONE',  ( 1.000000000000000000, 0.0000000000000000000, 0.0000000000000000000 ) ) ;
#177 =( GEOMETRIC_REPRESENTATION_CONTEXT ( 3 ) GLOBAL_UNCERTAINTY_ASSIGNED_CONTEXT ( ( #178 ) ) GLOBAL_UNIT_ASSIGNED_CONTEXT ( ( #204, #203, #202 ) ) REPRESENTATION_CONTEXT ( 'NONE', 'WORKASPACE' ) );
#178 = UNCERTAINTY_MEASURE_WITH_UNIT (LENGTH_MEASURE( 1.000000000000000100E-005 ), #204, 'distance_accuracy_value', 'NONE');
#179 = SURFACE_SIDE_STYLE ('',( #1 ) ) ;
#180 = MECHANICAL_DESIGN_GEOMETRIC_PRESENTATION_REPRESENTATION (  '', ( #182 ), #222 ) ;
#181 = PRESENTATION_LAYER_ASSIGNMENT (  '', '', ( #182 ) ) ;
#182 = STYLED_ITEM ( 'NONE', ( #183 ), #130 ) ;
#183 = PRESENTATION_STYLE_ASSIGNMENT (( #214 ) ) ;
#184 = CARTESIAN_POINT ( 'NONE',  ( 0.0000000000000000000, 0.0000000000000000000, 5.352714641851661300 ) ) ;
#185 = AXIS2_PLACEMENT_3D ( 'NONE', #184, #174, #173 ) ;
#186 = FILL_AREA_STYLE_COLOUR ( '', #172 ) ;
#187 =( LENGTH_UNIT ( ) NAMED_UNIT ( * ) SI_UNIT ( .MILLI., .METRE. ) );
#188 = MECHANICAL_DESIGN_GEOMETRIC_PRESENTATION_REPRESENTATION (  '', ( #151 ), #207 ) ;
#189 = DIRECTION ( 'NONE',  ( 0.0000000000000000000, 1.000000000000000000, 0.0000000000000000000 ) ) ;
#190 = DIRECTION ( 'NONE',  ( -1.000000000000000000, 0.0000000000000000000, 0.0000000000000000000 ) ) ;
#191 = CARTESIAN_POINT ( 'NONE',  ( 0.0000000000000000000, 0.0000000000000000000, 0.0000000000000000000 ) ) ;
#192 = DIRECTION ( 'NONE',  ( 0.0000000000000000000, 0.0000000000000000000, 1.000000000000000000 ) ) ;
#193 =( LENGTH_UNIT ( ) NAMED_UNIT ( * ) SI_UNIT ( .MILLI., .METRE. ) );
#194 = AXIS2_PLACEMENT_3D ( 'NONE', #191, #192, #176 ) ;
#195 = CARTESIAN_POINT ( 'NONE',  ( -3.110500138708838900E-015, -25.40000000000000600, 5.352714641851658700 ) ) ;
#196 = DIRECTION ( 'NONE',  ( -1.224606353822377000E-016, -1.000000000000000000, 0.0000000000000000000 ) ) ;
#197 = DIRECTION ( 'NONE',  ( -1.000000000000000000, 1.224606353822377300E-016, 0.0000000000000000000 ) ) ;
#198 = CARTESIAN_POINT ( 'NONE',  ( 0.0000000000000000000, 0.0000000000000000000, 50.10728535814833900 ) ) ;
#199 = AXIS2_PLACEMENT_3D ( 'NONE', #198, #197, #196 ) ;
#200 = CIRCLE ( 'NONE', #199, 51.46000000000000800 ) ;
#201 = PRESENTATION_STYLE_ASSIGNMENT (( #229 ) ) ;
#202 =( NAMED_UNIT ( * ) SI_UNIT ( $, .STERADIAN. ) SOLID_ANGLE_UNIT ( ) );
#203 =( NAMED_UNIT ( * ) PLANE_ANGLE_UNIT ( ) SI_UNIT ( $, .RADIAN. ) );
#204 =( LENGTH_UNIT ( ) NAMED_UNIT ( * ) SI_UNIT ( .MILLI., .METRE. ) );
#205 = MECHANICAL_DESIGN_GEOMETRIC_PRESENTATION_REPRESENTATION (  '', ( #158 ), #177 ) ;
#206 =( GEOMETRIC_REPRESENTATION_CONTEXT ( 3 ) GLOBAL_UNCERTAINTY_ASSIGNED_CONTEXT ( ( #237 ) ) GLOBAL_UNIT_ASSIGNED_CONTEXT ( ( #247, #239, #238 ) ) REPRESENTATION_CONTEXT ( 'NONE', 'WORKASPACE' ) );
#207 =( GEOMETRIC_REPRESENTATION_CONTEXT ( 3 ) GLOBAL_UNCERTAINTY_ASSIGNED_CONTEXT ( ( #243 ) ) GLOBAL_UNIT_ASSIGNED_CONTEXT ( ( #187, #175, #156 ) ) REPRESENTATION_CONTEXT ( 'NONE', 'WORKASPACE' ) );
#208 = DIRECTION ( 'NONE',  ( 0.0000000000000000000, 1.000000000000000000, 0.0000000000000000000 ) ) ;
#209 = DIRECTION ( 'NONE',  ( -1.000000000000000000, 0.0000000000000000000, 0.0000000000000000000 ) ) ;
#210 = AXIS2_PLACEMENT_3D ( 'NONE', #220, #209, #208 ) ;
#211 = CIRCLE ( 'NONE', #185, 25.39999999999999900 ) ;
#212 = ADVANCED_BREP_SHAPE_REPRESENTATION ( '3438-E0W', ( #134, #194 ), #213 ) ;
#213 =( GEOMETRIC_REPRESENTATION_CONTEXT ( 3 ) GLOBAL_UNCERTAINTY_ASSIGNED_CONTEXT ( ( #240 ) ) GLOBAL_UNIT_ASSIGNED_CONTEXT ( ( #193, #242, #241 ) ) REPRESENTATION_CONTEXT ( 'NONE', 'WORKASPACE' ) );
#214 = SURFACE_STYLE_USAGE ( .BOTH. , #215 ) ;
#215 = SURFACE_SIDE_STYLE ('',( #216 ) ) ;
#216 = SURFACE_STYLE_FILL_AREA ( #217 ) ;
#217 = FILL_AREA_STYLE ('',( #230 ) ) ;
#218 = COLOUR_RGB ( '',0.9568627450980391500, 0.9490196078431372100, 0.9607843137254902200 ) ;
#219 = DIRECTION ( 'NONE',  ( 1.000000000000000000, 0.0000000000000000000, 0.0000000000000000000 ) ) ;
#220 = CARTESIAN_POINT ( 'NONE',  ( 0.0000000000000000000, 0.0000000000000000000, 50.10728535814833900 ) ) ;
#221 = SPHERICAL_SURFACE ( 'NONE', #210, 51.46000000000000800 ) ;
#222 =( GEOMETRIC_REPRESENTATION_CONTEXT ( 3 ) GLOBAL_UNCERTAINTY_ASSIGNED_CONTEXT ( ( #234 ) ) GLOBAL_UNIT_ASSIGNED_CONTEXT ( ( #233, #232, #235 ) ) REPRESENTATION_CONTEXT ( 'NONE', 'WORKASPACE' ) );
#223 = CARTESIAN_POINT ( 'NONE',  ( 0.0000000000000000000, 3.150912148384976700E-015, -1.352714641851666900 ) ) ;
#224 = CARTESIAN_POINT ( 'NONE',  ( -25.39999999999999900, 3.110500138708838200E-015, 5.352714641851661300 ) ) ;
#225 = DIRECTION ( 'NONE',  ( -0.0000000000000000000, -0.0000000000000000000, 1.000000000000000000 ) ) ;
#226 = VECTOR ( 'NONE', #225, 1000.000000000000000 ) ;
#227 = CARTESIAN_POINT ( 'NONE',  ( -25.39999999999999900, 3.110500138708838200E-015, 5.664438628577664200 ) ) ;
#228 = LINE ( 'NONE', #227, #226 ) ;
#229 = SURFACE_STYLE_USAGE ( .BOTH. , #179 ) ;
#230 = FILL_AREA_STYLE_COLOUR ( '', #218 ) ;
#231 = FACE_OUTER_BOUND ( 'NONE', #115, .T. ) ;
#232 =( NAMED_UNIT ( * ) PLANE_ANGLE_UNIT ( ) SI_UNIT ( $, .RADIAN. ) );
#233 =( LENGTH_UNIT ( ) NAMED_UNIT ( * ) SI_UNIT ( .MILLI., .METRE. ) );
#234 = UNCERTAINTY_MEASURE_WITH_UNIT (LENGTH_MEASURE( 1.000000000000000100E-005 ), #233, 'distance_accuracy_value', 'NONE');
#235 =( NAMED_UNIT ( * ) SI_UNIT ( $, .STERADIAN. ) SOLID_ANGLE_UNIT ( ) );
#236 = PRESENTATION_LAYER_ASSIGNMENT (  '', '', ( #151 ) ) ;
#237 = UNCERTAINTY_MEASURE_WITH_UNIT (LENGTH_MEASURE( 1.000000000000000100E-005 ), #247, 'distance_accuracy_value', 'NONE');
#238 =( NAMED_UNIT ( * ) SI_UNIT ( $, .STERADIAN. ) SOLID_ANGLE_UNIT ( ) );
#239 =( NAMED_UNIT ( * ) PLANE_ANGLE_UNIT ( ) SI_UNIT ( $, .RADIAN. ) );
#240 = UNCERTAINTY_MEASURE_WITH_UNIT (LENGTH_MEASURE( 1.000000000000000100E-005 ), #193, 'distance_accuracy_value', 'NONE');
#241 =( NAMED_UNIT ( * ) SI_UNIT ( $, .STERADIAN. ) SOLID_ANGLE_UNIT ( ) );
#242 =( NAMED_UNIT ( * ) PLANE_ANGLE_UNIT ( ) SI_UNIT ( $, .RADIAN. ) );
#243 = UNCERTAINTY_MEASURE_WITH_UNIT (LENGTH_MEASURE( 1.000000000000000100E-005 ), #187, 'distance_accuracy_value', 'NONE');
#244 = CARTESIAN_POINT ( 'NONE',  ( 0.0000000000000000000, 0.0000000000000000000, 50.10728535814833900 ) ) ;
#245 = SPHERICAL_SURFACE ( 'NONE', #246, 51.46000000000000800 ) ;
#246 = AXIS2_PLACEMENT_3D ( 'NONE', #244, #190, #189 ) ;
#247 =( LENGTH_UNIT ( ) NAMED_UNIT ( * ) SI_UNIT ( .MILLI., .METRE. ) );
#248 = MECHANICAL_DESIGN_GEOMETRIC_PRESENTATION_REPRESENTATION (  '', ( #166 ), #206 ) ;
#249 = PRESENTATION_LAYER_ASSIGNMENT (  '', '', ( #166 ) ) ;
#250 = PRODUCT_RELATED_PRODUCT_CATEGORY ( 'part', '', ( #254 ) ) ;
#251 = PRODUCT_DEFINITION_FORMATION_WITH_SPECIFIED_SOURCE ( 'ANY', '', #254, .NOT_KNOWN. ) ;
#252 = APPLICATION_PROTOCOL_DEFINITION ( 'draft international standard', 'automotive_design', 1998, #253 ) ;
#253 = APPLICATION_CONTEXT ( 'automotive_design' ) ;
#254 = PRODUCT ( '3438-E0W', '3438-E0W', '', ( #255 ) ) ;
#255 = PRODUCT_CONTEXT ( 'NONE', #256, 'mechanical' ) ;
#256 = APPLICATION_CONTEXT ( 'automotive_design' ) ;
#257 = PRODUCT_DEFINITION_SHAPE ( 'NONE', 'NONE',  #260 ) ;
#258 = APPLICATION_PROTOCOL_DEFINITION ( 'draft international standard', 'automotive_design', 1998, #256 ) ;
#259 = SHAPE_DEFINITION_REPRESENTATION ( #257, #212 ) ;
#260 = PRODUCT_DEFINITION ( 'UNKNOWN', '', #251, #261 ) ;
#261 = PRODUCT_DEFINITION_CONTEXT ( 'detailed design', #253, 'design' ) ;
ENDSEC;
END-ISO-10303-21;
