ISO-10303-21;
HEADER;
FILE_DESCRIPTION (( 'STEP AP203' ),
    '1' );
FILE_NAME ('Web Model 18299.step',
    '2021-06-28T20:41:36',
    ( '' ),
    ( '' ),
    'SwSTEP 2.0',
    'SolidWorks 2018',
    '' );
FILE_SCHEMA (( 'CONFIG_CONTROL_DESIGN' ));
ENDSEC;

DATA;
#1 = DIRECTION ( 'NONE',  ( -0.000000000000000000, -0.000000000000000000, -1.000000000000000000 ) ) ;
#2 = LINE ( 'NONE', #49, #145 ) ;
#3 = APPROVAL_STATUS ( 'not_yet_approved' ) ;
#4 = DIRECTION ( 'NONE',  ( 1.000000000000000000, 0.000000000000000000, -0.000000000000000000 ) ) ;
#5 = DIRECTION ( 'NONE',  ( 1.000000000000000000, 0.000000000000000000, -0.000000000000000000 ) ) ;
#6 = DIMENSIONAL_EXPONENTS ( 1.000000000000000000, 0.000000000000000000, 0.000000000000000000, 0.000000000000000000, 0.000000000000000000, 0.000000000000000000, 0.000000000000000000 ) ;
#7 = PERSON_AND_ORGANIZATION ( #15, #88 ) ;
#8 = LOCAL_TIME ( 16, 41, 36.00000000000000000, #24 ) ;
#9 = VERTEX_POINT ( 'NONE', #133 ) ;
#10 = PERSON_AND_ORGANIZATION ( #15, #88 ) ;
#11 = LOCAL_TIME ( 16, 41, 36.00000000000000000, #152 ) ;
#12 = APPROVAL_STATUS ( 'not_yet_approved' ) ;
#13 = CARTESIAN_POINT ( 'NONE',  ( -0.4921259842519685179, 0.000000000000000000, 0.000000000000000000 ) ) ;
#14 = ORIENTED_EDGE ( 'NONE', *, *, #158, .F. ) ;
#15 = PERSON ( 'UNSPECIFIED', 'UNSPECIFIED', 'UNSPECIFIED', ('UNSPECIFIED'), ('UNSPECIFIED'), ('UNSPECIFIED') ) ;
#16 = CALENDAR_DATE ( 2021, 28, 6 ) ;
#17 =( GEOMETRIC_REPRESENTATION_CONTEXT ( 3 ) GLOBAL_UNCERTAINTY_ASSIGNED_CONTEXT ( ( #70 ) ) GLOBAL_UNIT_ASSIGNED_CONTEXT ( ( #69, #175, #163 ) ) REPRESENTATION_CONTEXT ( 'NONE', 'WORKASPACE' ) );
#18 = DATE_AND_TIME ( #77, #11 ) ;
#19 = APPROVAL_DATE_TIME ( #41, #118 ) ;
#20 = PRODUCT_DEFINITION_FORMATION_WITH_SPECIFIED_SOURCE ( 'ANY', '', #132, .NOT_KNOWN. ) ;
#21 = FACE_OUTER_BOUND ( 'NONE', #89, .T. ) ;
#22 = CC_DESIGN_PERSON_AND_ORGANIZATION_ASSIGNMENT ( #28, #151, ( #132 ) ) ;
#23 = CLOSED_SHELL ( 'NONE', ( #91, #26, #140, #100 ) ) ;
#24 = COORDINATED_UNIVERSAL_TIME_OFFSET ( 5, 0, .BEHIND. ) ;
#25 = ORIENTED_EDGE ( 'NONE', *, *, #67, .F. ) ;
#26 = ADVANCED_FACE ( 'NONE', ( #93 ), #84, .T. ) ;
#27 = CARTESIAN_POINT ( 'NONE',  ( 0.000000000000000000, 0.000000000000000000, 0.000000000000000000 ) ) ;
#28 = PERSON_AND_ORGANIZATION ( #15, #88 ) ;
#29 = DIRECTION ( 'NONE',  ( 1.000000000000000000, 0.000000000000000000, 0.000000000000000000 ) ) ;
#30 = CC_DESIGN_APPROVAL ( #160, ( #20 ) ) ;
#31 = EDGE_LOOP ( 'NONE', ( #170, #172, #161, #25 ) ) ;
#32 = PRODUCT_DEFINITION_SHAPE ( 'NONE', 'NONE',  #106 ) ;
#33 = AXIS2_PLACEMENT_3D ( 'NONE', #27, #119, #5 ) ;
#34 = LENGTH_MEASURE_WITH_UNIT ( LENGTH_MEASURE( 0.02539999999999999897 ), #101 );
#35 = APPROVAL_ROLE ( '' ) ;
#36 = DIRECTION ( 'NONE',  ( -1.000000000000000000, 0.000000000000000000, 0.000000000000000000 ) ) ;
#37 = CC_DESIGN_PERSON_AND_ORGANIZATION_ASSIGNMENT ( #10, #138, ( #144 ) ) ;
#38 = COORDINATED_UNIVERSAL_TIME_OFFSET ( 5, 0, .BEHIND. ) ;
#39 = CARTESIAN_POINT ( 'NONE',  ( 0.000000000000000000, 0.000000000000000000, 0.000000000000000000 ) ) ;
#40 = CARTESIAN_POINT ( 'NONE',  ( 0.4921259842519685179, 6.026805113914139867E-17, 0.01574803149606299191 ) ) ;
#41 = DATE_AND_TIME ( #57, #73 ) ;
#42 = AXIS2_PLACEMENT_3D ( 'NONE', #78, #169, #4 ) ;
#43 = CALENDAR_DATE ( 2021, 28, 6 ) ;
#44 = PERSON_AND_ORGANIZATION ( #15, #88 ) ;
#45 = ORIENTED_EDGE ( 'NONE', *, *, #135, .T. ) ;
#46 = APPROVAL ( #127, 'UNSPECIFIED' ) ;
#47 = PERSON_AND_ORGANIZATION ( #15, #88 ) ;
#48 = AXIS2_PLACEMENT_3D ( 'NONE', #53, #65, #153 ) ;
#49 = CARTESIAN_POINT ( 'NONE',  ( -0.4921259842519685179, 0.000000000000000000, 0.01574803149606299191 ) ) ;
#50 = ORIENTED_EDGE ( 'NONE', *, *, #176, .T. ) ;
#51 = AXIS2_PLACEMENT_3D ( 'NONE', #39, #136, #63 ) ;
#52 = DIRECTION ( 'NONE',  ( -0.000000000000000000, -0.000000000000000000, -1.000000000000000000 ) ) ;
#53 = CARTESIAN_POINT ( 'NONE',  ( 0.000000000000000000, 0.000000000000000000, 0.01574803149606299191 ) ) ;
#54 = APPLICATION_CONTEXT ( 'configuration controlled 3d designs of mechanical parts and assemblies' ) ;
#55 = ORIENTED_EDGE ( 'NONE', *, *, #123, .F. ) ;
#56 = CC_DESIGN_DATE_AND_TIME_ASSIGNMENT ( #147, #177, ( #144 ) ) ;
#57 = CALENDAR_DATE ( 2021, 28, 6 ) ;
#58 = APPROVAL_PERSON_ORGANIZATION ( #96, #46, #168 ) ;
#59 = EDGE_LOOP ( 'NONE', ( #115, #55, #124, #50 ) ) ;
#60 = CARTESIAN_POINT ( 'NONE',  ( 0.000000000000000000, 0.000000000000000000, 0.01574803149606299191 ) ) ;
#61 = DIRECTION ( 'NONE',  ( -1.000000000000000000, 0.000000000000000000, 0.000000000000000000 ) ) ;
#62 = VERTEX_POINT ( 'NONE', #13 ) ;
#63 = DIRECTION ( 'NONE',  ( 1.000000000000000000, 0.000000000000000000, 0.000000000000000000 ) ) ;
#64 = AXIS2_PLACEMENT_3D ( 'NONE', #164, #139, #29 ) ;
#65 = DIRECTION ( 'NONE',  ( 0.000000000000000000, 0.000000000000000000, 1.000000000000000000 ) ) ;
#66 = CARTESIAN_POINT ( 'NONE',  ( 0.000000000000000000, 0.000000000000000000, 0.000000000000000000 ) ) ;
#67 = EDGE_CURVE ( 'NONE', #162, #62, #2, .T. ) ;
#68 = PERSON_AND_ORGANIZATION ( #15, #88 ) ;
#69 =( CONVERSION_BASED_UNIT ( 'INCH', #34 ) LENGTH_UNIT ( ) NAMED_UNIT ( #6 ) );
#70 = UNCERTAINTY_MEASURE_WITH_UNIT (LENGTH_MEASURE( 1.000000000000000082E-05 ), #69, 'distance_accuracy_value', 'NONE');
#71 = APPLICATION_PROTOCOL_DEFINITION ( 'international standard', 'config_control_design', 1994, #75 ) ;
#72 = CC_DESIGN_APPROVAL ( #118, ( #106 ) ) ;
#73 = LOCAL_TIME ( 16, 41, 36.00000000000000000, #142 ) ;
#74 = LOCAL_TIME ( 16, 41, 36.00000000000000000, #38 ) ;
#75 = APPLICATION_CONTEXT ( 'configuration controlled 3d designs of mechanical parts and assemblies' ) ;
#76 = DIRECTION ( 'NONE',  ( 0.000000000000000000, 0.000000000000000000, 1.000000000000000000 ) ) ;
#77 = CALENDAR_DATE ( 2021, 28, 6 ) ;
#78 = CARTESIAN_POINT ( 'NONE',  ( 0.000000000000000000, 0.000000000000000000, 0.01574803149606299191 ) ) ;
#79 = EDGE_LOOP ( 'NONE', ( #104, #14 ) ) ;
#80 = CIRCLE ( 'NONE', #48, 0.4921259842519685179 ) ;
#81 = AXIS2_PLACEMENT_3D ( 'NONE', #98, #111, #36 ) ;
#82 = DATE_AND_TIME ( #171, #8 ) ;
#83 = VECTOR ( 'NONE', #52, 39.37007874015748143 ) ;
#84 = CYLINDRICAL_SURFACE ( 'NONE', #81, 0.4921259842519685179 ) ;
#85 = DATE_TIME_ROLE ( 'creation_date' ) ;
#86 = APPROVAL_DATE_TIME ( #82, #46 ) ;
#87 = PERSON_AND_ORGANIZATION_ROLE ( 'creator' ) ;
#88 = ORGANIZATION ( 'UNSPECIFIED', 'UNSPECIFIED', '' ) ;
#89 = EDGE_LOOP ( 'NONE', ( #97, #45 ) ) ;
#90 = PLANE ( 'NONE',  #42 ) ;
#91 = ADVANCED_FACE ( 'NONE', ( #95 ), #129, .T. ) ;
#92 = CARTESIAN_POINT ( 'NONE',  ( -0.4921259842519685179, 0.000000000000000000, 0.01574803149606299191 ) ) ;
#93 = FACE_OUTER_BOUND ( 'NONE', #59, .T. ) ;
#94 = SHAPE_DEFINITION_REPRESENTATION ( #32, #174 ) ;
#95 = FACE_OUTER_BOUND ( 'NONE', #31, .T. ) ;
#96 = PERSON_AND_ORGANIZATION ( #15, #88 ) ;
#97 = ORIENTED_EDGE ( 'NONE', *, *, #123, .T. ) ;
#98 = CARTESIAN_POINT ( 'NONE',  ( 0.000000000000000000, 0.000000000000000000, 0.01574803149606299191 ) ) ;
#99 = DESIGN_CONTEXT ( 'detailed design', #75, 'design' ) ;
#100 = ADVANCED_FACE ( 'NONE', ( #108 ), #114, .F. ) ;
#101 =( LENGTH_UNIT ( ) NAMED_UNIT ( * ) SI_UNIT ( $, .METRE. ) );
#102 = MANIFOLD_SOLID_BREP ( 'Boss-Extrude1', #23 ) ;
#103 = CARTESIAN_POINT ( 'NONE',  ( 0.4921259842519685179, 6.026805113914139867E-17, 0.01574803149606299191 ) ) ;
#104 = ORIENTED_EDGE ( 'NONE', *, *, #176, .F. ) ;
#105 = DATE_AND_TIME ( #43, #131 ) ;
#106 = PRODUCT_DEFINITION ( 'UNKNOWN', '', #20, #99 ) ;
#107 = CC_DESIGN_APPROVAL ( #46, ( #144 ) ) ;
#108 = FACE_OUTER_BOUND ( 'NONE', #79, .T. ) ;
#109 = APPROVAL_DATE_TIME ( #105, #160 ) ;
#110 = COORDINATED_UNIVERSAL_TIME_OFFSET ( 5, 0, .BEHIND. ) ;
#111 = DIRECTION ( 'NONE',  ( -0.000000000000000000, -0.000000000000000000, -1.000000000000000000 ) ) ;
#112 = VERTEX_POINT ( 'NONE', #40 ) ;
#113 = MECHANICAL_CONTEXT ( 'NONE', #54, 'mechanical' ) ;
#114 = PLANE ( 'NONE',  #33 ) ;
#115 = ORIENTED_EDGE ( 'NONE', *, *, #146, .F. ) ;
#116 = PERSON_AND_ORGANIZATION_ROLE ( 'design_supplier' ) ;
#117 = DIRECTION ( 'NONE',  ( 0.000000000000000000, 0.000000000000000000, 1.000000000000000000 ) ) ;
#118 = APPROVAL ( #3, 'UNSPECIFIED' ) ;
#119 = DIRECTION ( 'NONE',  ( 0.000000000000000000, 0.000000000000000000, 1.000000000000000000 ) ) ;
#120 = APPLICATION_PROTOCOL_DEFINITION ( 'international standard', 'config_control_design', 1994, #54 ) ;
#121 = DIRECTION ( 'NONE',  ( 1.000000000000000000, 0.000000000000000000, 0.000000000000000000 ) ) ;
#122 = CC_DESIGN_PERSON_AND_ORGANIZATION_ASSIGNMENT ( #150, #137, ( #20 ) ) ;
#123 = EDGE_CURVE ( 'NONE', #162, #112, #80, .T. ) ;
#124 = ORIENTED_EDGE ( 'NONE', *, *, #67, .T. ) ;
#125 = CC_DESIGN_PERSON_AND_ORGANIZATION_ASSIGNMENT ( #68, #116, ( #20 ) ) ;
#126 = LINE ( 'NONE', #103, #83 ) ;
#127 = APPROVAL_STATUS ( 'not_yet_approved' ) ;
#128 = AXIS2_PLACEMENT_3D ( 'NONE', #66, #117, #121 ) ;
#129 = CYLINDRICAL_SURFACE ( 'NONE', #143, 0.4921259842519685179 ) ;
#130 = CC_DESIGN_PERSON_AND_ORGANIZATION_ASSIGNMENT ( #44, #87, ( #106 ) ) ;
#131 = LOCAL_TIME ( 16, 41, 36.00000000000000000, #110 ) ;
#132 = PRODUCT ( 'Web Model 18299', 'Web Model 18299', '', ( #113 ) ) ;
#133 = CARTESIAN_POINT ( 'NONE',  ( 0.4921259842519685179, 6.026805113914139867E-17, 0.000000000000000000 ) ) ;
#134 = CIRCLE ( 'NONE', #166, 0.4921259842519685179 ) ;
#135 = EDGE_CURVE ( 'NONE', #112, #162, #134, .T. ) ;
#136 = DIRECTION ( 'NONE',  ( 0.000000000000000000, 0.000000000000000000, 1.000000000000000000 ) ) ;
#137 = PERSON_AND_ORGANIZATION_ROLE ( 'creator' ) ;
#138 = PERSON_AND_ORGANIZATION_ROLE ( 'classification_officer' ) ;
#139 = DIRECTION ( 'NONE',  ( 0.000000000000000000, 0.000000000000000000, 1.000000000000000000 ) ) ;
#140 = ADVANCED_FACE ( 'NONE', ( #21 ), #90, .T. ) ;
#141 = CC_DESIGN_SECURITY_CLASSIFICATION ( #144, ( #20 ) ) ;
#142 = COORDINATED_UNIVERSAL_TIME_OFFSET ( 5, 0, .BEHIND. ) ;
#143 = AXIS2_PLACEMENT_3D ( 'NONE', #60, #148, #61 ) ;
#144 = SECURITY_CLASSIFICATION ( '', '', #154 ) ;
#145 = VECTOR ( 'NONE', #1, 39.37007874015748143 ) ;
#146 = EDGE_CURVE ( 'NONE', #112, #9, #126, .T. ) ;
#147 = DATE_AND_TIME ( #16, #74 ) ;
#148 = DIRECTION ( 'NONE',  ( -0.000000000000000000, -0.000000000000000000, -1.000000000000000000 ) ) ;
#149 = CC_DESIGN_DATE_AND_TIME_ASSIGNMENT ( #18, #85, ( #106 ) ) ;
#150 = PERSON_AND_ORGANIZATION ( #15, #88 ) ;
#151 = PERSON_AND_ORGANIZATION_ROLE ( 'design_owner' ) ;
#152 = COORDINATED_UNIVERSAL_TIME_OFFSET ( 5, 0, .BEHIND. ) ;
#153 = DIRECTION ( 'NONE',  ( 1.000000000000000000, 0.000000000000000000, 0.000000000000000000 ) ) ;
#154 = SECURITY_CLASSIFICATION_LEVEL ( 'unclassified' ) ;
#155 = DIRECTION ( 'NONE',  ( 1.000000000000000000, 0.000000000000000000, 0.000000000000000000 ) ) ;
#156 = PRODUCT_RELATED_PRODUCT_CATEGORY ( 'detail', '', ( #132 ) ) ;
#157 = CIRCLE ( 'NONE', #51, 0.4921259842519685179 ) ;
#158 = EDGE_CURVE ( 'NONE', #9, #62, #165, .T. ) ;
#159 = APPROVAL_PERSON_ORGANIZATION ( #47, #160, #35 ) ;
#160 = APPROVAL ( #12, 'UNSPECIFIED' ) ;
#161 = ORIENTED_EDGE ( 'NONE', *, *, #158, .T. ) ;
#162 = VERTEX_POINT ( 'NONE', #92 ) ;
#163 =( NAMED_UNIT ( * ) SI_UNIT ( $, .STERADIAN. ) SOLID_ANGLE_UNIT ( ) );
#164 = CARTESIAN_POINT ( 'NONE',  ( 0.000000000000000000, 0.000000000000000000, 0.000000000000000000 ) ) ;
#165 = CIRCLE ( 'NONE', #128, 0.4921259842519685179 ) ;
#166 = AXIS2_PLACEMENT_3D ( 'NONE', #167, #76, #155 ) ;
#167 = CARTESIAN_POINT ( 'NONE',  ( 0.000000000000000000, 0.000000000000000000, 0.01574803149606299191 ) ) ;
#168 = APPROVAL_ROLE ( '' ) ;
#169 = DIRECTION ( 'NONE',  ( 0.000000000000000000, 0.000000000000000000, 1.000000000000000000 ) ) ;
#170 = ORIENTED_EDGE ( 'NONE', *, *, #135, .F. ) ;
#171 = CALENDAR_DATE ( 2021, 28, 6 ) ;
#172 = ORIENTED_EDGE ( 'NONE', *, *, #146, .T. ) ;
#173 = APPROVAL_PERSON_ORGANIZATION ( #7, #118, #178 ) ;
#174 = ADVANCED_BREP_SHAPE_REPRESENTATION ( 'Web Model 18299', ( #102, #64 ), #17 ) ;
#175 =( NAMED_UNIT ( * ) PLANE_ANGLE_UNIT ( ) SI_UNIT ( $, .RADIAN. ) );
#176 = EDGE_CURVE ( 'NONE', #62, #9, #157, .T. ) ;
#177 = DATE_TIME_ROLE ( 'classification_date' ) ;
#178 = APPROVAL_ROLE ( '' ) ;
ENDSEC;
END-ISO-10303-21;
