ISO-10303-21;
HEADER;
FILE_DESCRIPTION (( 'STEP AP203' ),
    '1' );
FILE_NAME ('Web Model 19307_19310.step',
    '2021-08-23T19:36:28',
    ( '' ),
    ( '' ),
    'SwSTEP 2.0',
    'SolidWorks 2018',
    '' );
FILE_SCHEMA (( 'CONFIG_CONTROL_DESIGN' ));
ENDSEC;

DATA;
#1 = CALENDAR_DATE ( 2021, 23, 8 ) ;
#2 = DIRECTION ( 'NONE',  ( 0.000000000000000000, 0.000000000000000000, 1.000000000000000000 ) ) ;
#3 = DIRECTION ( 'NONE',  ( 0.000000000000000000, 0.000000000000000000, 1.000000000000000000 ) ) ;
#4 = CARTESIAN_POINT ( 'NONE',  ( -7.940000000000001279, 0.000000000000000000, 3.180000000000000160 ) ) ;
#5 = EDGE_LOOP ( 'NONE', ( #70, #127 ) ) ;
#6 = VECTOR ( 'NONE', #283, 1000.000000000000000 ) ;
#7 = CC_DESIGN_DATE_AND_TIME_ASSIGNMENT ( #210, #23, ( #310 ) ) ;
#8 = PERSON_AND_ORGANIZATION ( #410, #244 ) ;
#9 = CARTESIAN_POINT ( 'NONE',  ( 6.349999999999999645, 7.776507174585690191E-16, 0.000000000000000000 ) ) ;
#10 = APPROVAL_ROLE ( '' ) ;
#11 = DIRECTION ( 'NONE',  ( 0.000000000000000000, 0.000000000000000000, 1.000000000000000000 ) ) ;
#12 = AXIS2_PLACEMENT_3D ( 'NONE', #110, #151, #265 ) ;
#13 = SHAPE_DEFINITION_REPRESENTATION ( #89, #81 ) ;
#14 = PRODUCT_DEFINITION_FORMATION_WITH_SPECIFIED_SOURCE ( 'ANY', '', #200, .NOT_KNOWN. ) ;
#15 = ORIENTED_EDGE ( 'NONE', *, *, #35, .T. ) ;
#16 = LINE ( 'NONE', #56, #51 ) ;
#17 = CARTESIAN_POINT ( 'NONE',  ( -7.393900000000001249, 6.687796170143697942E-17, 0.000000000000000000 ) ) ;
#18 = APPLICATION_CONTEXT ( 'configuration controlled 3d designs of mechanical parts and assemblies' ) ;
#19 = CYLINDRICAL_SURFACE ( 'NONE', #335, 0.5461000000000006960 ) ;
#20 = DIRECTION ( 'NONE',  ( 0.000000000000000000, 0.000000000000000000, 1.000000000000000000 ) ) ;
#21 = CARTESIAN_POINT ( 'NONE',  ( 8.486100000000002197, 6.687796170143707803E-17, 3.180000000000000160 ) ) ;
#22 = VERTEX_POINT ( 'NONE', #234 ) ;
#23 = DATE_TIME_ROLE ( 'creation_date' ) ;
#24 = AXIS2_PLACEMENT_3D ( 'NONE', #44, #46, #297 ) ;
#25 = CALENDAR_DATE ( 2021, 23, 8 ) ;
#26 = CIRCLE ( 'NONE', #299, 0.5461000000000006960 ) ;
#27 = CIRCLE ( 'NONE', #363, 0.5460999999999999188 ) ;
#28 = AXIS2_PLACEMENT_3D ( 'NONE', #334, #153, #338 ) ;
#29 = ADVANCED_FACE ( 'NONE', ( #263 ), #253, .F. ) ;
#30 = DIRECTION ( 'NONE',  ( -1.000000000000000000, 0.000000000000000000, 0.000000000000000000 ) ) ;
#31 = VERTEX_POINT ( 'NONE', #407 ) ;
#32 = DIRECTION ( 'NONE',  ( 0.000000000000000000, 0.000000000000000000, 1.000000000000000000 ) ) ;
#33 = CARTESIAN_POINT ( 'NONE',  ( 0.000000000000000000, 0.000000000000000000, 3.180000000000000160 ) ) ;
#34 = CYLINDRICAL_SURFACE ( 'NONE', #160, 6.349999999999999645 ) ;
#35 = EDGE_CURVE ( 'NONE', #63, #104, #393, .T. ) ;
#36 = DIRECTION ( 'NONE',  ( 0.000000000000000000, 0.000000000000000000, 1.000000000000000000 ) ) ;
#37 = ADVANCED_FACE ( 'NONE', ( #105 ), #326, .T. ) ;
#38 = EDGE_CURVE ( 'NONE', #43, #330, #93, .T. ) ;
#39 = DIRECTION ( 'NONE',  ( 1.000000000000000000, 0.000000000000000000, 0.000000000000000000 ) ) ;
#40 = VERTEX_POINT ( 'NONE', #9 ) ;
#41 = CC_DESIGN_APPROVAL ( #136, ( #14 ) ) ;
#42 = FACE_OUTER_BOUND ( 'NONE', #269, .T. ) ;
#43 = VERTEX_POINT ( 'NONE', #172 ) ;
#44 = CARTESIAN_POINT ( 'NONE',  ( 0.000000000000000000, 0.000000000000000000, 3.180000000000000160 ) ) ;
#45 = ORIENTED_EDGE ( 'NONE', *, *, #208, .F. ) ;
#46 = DIRECTION ( 'NONE',  ( -0.000000000000000000, -0.000000000000000000, -1.000000000000000000 ) ) ;
#47 = AXIS2_PLACEMENT_3D ( 'NONE', #96, #61, #247 ) ;
#48 = COORDINATED_UNIVERSAL_TIME_OFFSET ( 5, 0, .BEHIND. ) ;
#49 = ORIENTED_EDGE ( 'NONE', *, *, #161, .F. ) ;
#50 = EDGE_CURVE ( 'NONE', #386, #404, #397, .T. ) ;
#51 = VECTOR ( 'NONE', #332, 1000.000000000000000 ) ;
#52 = CIRCLE ( 'NONE', #170, 6.349999999999999645 ) ;
#53 =( NAMED_UNIT ( * ) SI_UNIT ( $, .STERADIAN. ) SOLID_ANGLE_UNIT ( ) );
#54 = AXIS2_PLACEMENT_3D ( 'NONE', #145, #351, #226 ) ;
#55 = VERTEX_POINT ( 'NONE', #296 ) ;
#56 = CARTESIAN_POINT ( 'NONE',  ( 6.349999999999999645, 7.776507174585690191E-16, 3.180000000000000160 ) ) ;
#57 = ORIENTED_EDGE ( 'NONE', *, *, #91, .T. ) ;
#58 = DATE_TIME_ROLE ( 'classification_date' ) ;
#59 = DIRECTION ( 'NONE',  ( 1.000000000000000000, 0.000000000000000000, 0.000000000000000000 ) ) ;
#60 = LOCAL_TIME ( 15, 36, 28.00000000000000000, #390 ) ;
#61 = DIRECTION ( 'NONE',  ( 0.000000000000000000, 0.000000000000000000, 1.000000000000000000 ) ) ;
#62 = EDGE_CURVE ( 'NONE', #404, #386, #65, .T. ) ;
#63 = VERTEX_POINT ( 'NONE', #121 ) ;
#64 = AXIS2_PLACEMENT_3D ( 'NONE', #4, #344, #353 ) ;
#65 = CIRCLE ( 'NONE', #317, 6.349999999999999645 ) ;
#66 = MANIFOLD_SOLID_BREP ( 'Boss-Extrude2', #316 ) ;
#67 = CC_DESIGN_PERSON_AND_ORGANIZATION_ASSIGNMENT ( #357, #303, ( #14 ) ) ;
#68 = ADVANCED_FACE ( 'NONE', ( #180 ), #354, .T. ) ;
#69 = CARTESIAN_POINT ( 'NONE',  ( -9.525000000000000355, 0.000000000000000000, 3.180000000000000160 ) ) ;
#70 = ORIENTED_EDGE ( 'NONE', *, *, #208, .T. ) ;
#71 = ORIENTED_EDGE ( 'NONE', *, *, #133, .F. ) ;
#72 = CC_DESIGN_SECURITY_CLASSIFICATION ( #90, ( #14 ) ) ;
#73 = DIRECTION ( 'NONE',  ( -1.000000000000000000, 0.000000000000000000, 0.000000000000000000 ) ) ;
#74 = AXIS2_PLACEMENT_3D ( 'NONE', #279, #128, #394 ) ;
#75 = DIRECTION ( 'NONE',  ( -0.000000000000000000, -0.000000000000000000, -1.000000000000000000 ) ) ;
#76 = ADVANCED_FACE ( 'NONE', ( #159 ), #325, .T. ) ;
#77 = ORIENTED_EDGE ( 'NONE', *, *, #389, .T. ) ;
#78 = EDGE_CURVE ( 'NONE', #386, #40, #16, .T. ) ;
#79 = CIRCLE ( 'NONE', #259, 0.5461000000000006960 ) ;
#80 = DIRECTION ( 'NONE',  ( -0.000000000000000000, -0.000000000000000000, -1.000000000000000000 ) ) ;
#81 = ADVANCED_BREP_SHAPE_REPRESENTATION ( 'Web Model 19307_19310', ( #66, #383 ), #107 ) ;
#82 = ORIENTED_EDGE ( 'NONE', *, *, #377, .T. ) ;
#83 = AXIS2_PLACEMENT_3D ( 'NONE', #260, #32, #254 ) ;
#84 = LINE ( 'NONE', #21, #320 ) ;
#85 = CARTESIAN_POINT ( 'NONE',  ( 0.000000000000000000, 0.000000000000000000, 3.180000000000000160 ) ) ;
#86 = FACE_BOUND ( 'NONE', #163, .T. ) ;
#87 = CARTESIAN_POINT ( 'NONE',  ( 0.000000000000000000, 0.000000000000000000, 3.180000000000000160 ) ) ;
#88 = EDGE_CURVE ( 'NONE', #55, #196, #242, .T. ) ;
#89 = PRODUCT_DEFINITION_SHAPE ( 'NONE', 'NONE',  #310 ) ;
#90 = SECURITY_CLASSIFICATION ( '', '', #154 ) ;
#91 = EDGE_CURVE ( 'NONE', #124, #311, #84, .T. ) ;
#92 = ORIENTED_EDGE ( 'NONE', *, *, #101, .T. ) ;
#93 = LINE ( 'NONE', #69, #6 ) ;
#94 = CARTESIAN_POINT ( 'NONE',  ( -6.349999999999999645, 0.000000000000000000, 3.180000000000000160 ) ) ;
#95 = PERSON_AND_ORGANIZATION ( #410, #244 ) ;
#96 = CARTESIAN_POINT ( 'NONE',  ( 0.000000000000000000, 0.000000000000000000, -0.002000000000000000042 ) ) ;
#97 = AXIS2_PLACEMENT_3D ( 'NONE', #414, #315, #375 ) ;
#98 = ORIENTED_EDGE ( 'NONE', *, *, #187, .T. ) ;
#99 = ORIENTED_EDGE ( 'NONE', *, *, #194, .T. ) ;
#100 = DIRECTION ( 'NONE',  ( 0.000000000000000000, 0.000000000000000000, 1.000000000000000000 ) ) ;
#101 = EDGE_CURVE ( 'NONE', #124, #31, #79, .T. ) ;
#102 = LOCAL_TIME ( 15, 36, 28.00000000000000000, #322 ) ;
#103 = ADVANCED_FACE ( 'NONE', ( #232 ), #399, .F. ) ;
#104 = VERTEX_POINT ( 'NONE', #17 ) ;
#105 = FACE_OUTER_BOUND ( 'NONE', #412, .T. ) ;
#106 = CARTESIAN_POINT ( 'NONE',  ( -7.940000000000001279, 0.000000000000000000, 3.180000000000000160 ) ) ;
#107 =( GEOMETRIC_REPRESENTATION_CONTEXT ( 3 ) GLOBAL_UNCERTAINTY_ASSIGNED_CONTEXT ( ( #119 ) ) GLOBAL_UNIT_ASSIGNED_CONTEXT ( ( #340, #212, #53 ) ) REPRESENTATION_CONTEXT ( 'NONE', 'WORKASPACE' ) );
#108 = CALENDAR_DATE ( 2021, 23, 8 ) ;
#109 = DIRECTION ( 'NONE',  ( 0.000000000000000000, 0.000000000000000000, 1.000000000000000000 ) ) ;
#110 = CARTESIAN_POINT ( 'NONE',  ( 0.000000000000000000, 0.000000000000000000, 0.000000000000000000 ) ) ;
#111 = CARTESIAN_POINT ( 'NONE',  ( 6.349999999999999645, 7.776507174585690191E-16, 3.180000000000000160 ) ) ;
#112 = ORIENTED_EDGE ( 'NONE', *, *, #214, .F. ) ;
#113 = DIRECTION ( 'NONE',  ( -0.000000000000000000, -0.000000000000000000, -1.000000000000000000 ) ) ;
#114 = ADVANCED_FACE ( 'NONE', ( #273 ), #336, .F. ) ;
#115 = EDGE_CURVE ( 'NONE', #196, #330, #239, .T. ) ;
#116 = CARTESIAN_POINT ( 'NONE',  ( 7.393900000000000361, 0.000000000000000000, 3.180000000000000160 ) ) ;
#117 = CC_DESIGN_PERSON_AND_ORGANIZATION_ASSIGNMENT ( #8, #277, ( #90 ) ) ;
#118 = ORIENTED_EDGE ( 'NONE', *, *, #38, .F. ) ;
#119 = UNCERTAINTY_MEASURE_WITH_UNIT (LENGTH_MEASURE( 1.000000000000000082E-05 ), #340, 'distance_accuracy_value', 'NONE');
#120 = VECTOR ( 'NONE', #378, 1000.000000000000000 ) ;
#121 = CARTESIAN_POINT ( 'NONE',  ( -8.486100000000002197, 0.000000000000000000, 0.000000000000000000 ) ) ;
#122 = APPROVAL_DATE_TIME ( #137, #136 ) ;
#123 = DIRECTION ( 'NONE',  ( 0.000000000000000000, 0.000000000000000000, 1.000000000000000000 ) ) ;
#124 = VERTEX_POINT ( 'NONE', #156 ) ;
#125 = CARTESIAN_POINT ( 'NONE',  ( -7.393900000000001249, 6.687796170143695477E-17, 3.180000000000000160 ) ) ;
#126 = PERSON_AND_ORGANIZATION ( #410, #244 ) ;
#127 = ORIENTED_EDGE ( 'NONE', *, *, #346, .T. ) ;
#128 = DIRECTION ( 'NONE',  ( 0.000000000000000000, 0.000000000000000000, 1.000000000000000000 ) ) ;
#129 = CC_DESIGN_APPROVAL ( #149, ( #90 ) ) ;
#130 = PERSON_AND_ORGANIZATION ( #410, #244 ) ;
#131 = DIRECTION ( 'NONE',  ( 1.000000000000000000, 0.000000000000000000, 0.000000000000000000 ) ) ;
#132 = FACE_OUTER_BOUND ( 'NONE', #229, .T. ) ;
#133 = EDGE_CURVE ( 'NONE', #311, #341, #26, .T. ) ;
#134 = EDGE_CURVE ( 'NONE', #330, #196, #309, .T. ) ;
#135 = ORIENTED_EDGE ( 'NONE', *, *, #133, .T. ) ;
#136 = APPROVAL ( #243, 'UNSPECIFIED' ) ;
#137 = DATE_AND_TIME ( #373, #148 ) ;
#138 = CARTESIAN_POINT ( 'NONE',  ( 0.000000000000000000, 0.000000000000000000, 3.180000000000000160 ) ) ;
#139 = ORIENTED_EDGE ( 'NONE', *, *, #115, .T. ) ;
#140 = CARTESIAN_POINT ( 'NONE',  ( 9.524999999999998579, 1.166476076187853627E-15, -0.002000000000000000042 ) ) ;
#141 = AXIS2_PLACEMENT_3D ( 'NONE', #33, #36, #173 ) ;
#142 = ADVANCED_FACE ( 'NONE', ( #343 ), #203, .T. ) ;
#143 = DIRECTION ( 'NONE',  ( 1.000000000000000000, 0.000000000000000000, 0.000000000000000000 ) ) ;
#144 = ORIENTED_EDGE ( 'NONE', *, *, #62, .F. ) ;
#145 = CARTESIAN_POINT ( 'NONE',  ( 0.000000000000000000, 0.000000000000000000, 3.180000000000000160 ) ) ;
#146 = LINE ( 'NONE', #225, #189 ) ;
#147 = DIRECTION ( 'NONE',  ( -1.000000000000000000, 0.000000000000000000, 0.000000000000000000 ) ) ;
#148 = LOCAL_TIME ( 15, 36, 28.00000000000000000, #350 ) ;
#149 = APPROVAL ( #183, 'UNSPECIFIED' ) ;
#150 = VERTEX_POINT ( 'NONE', #409 ) ;
#151 = DIRECTION ( 'NONE',  ( 0.000000000000000000, 0.000000000000000000, 1.000000000000000000 ) ) ;
#152 = EDGE_LOOP ( 'NONE', ( #164, #308 ) ) ;
#153 = DIRECTION ( 'NONE',  ( 0.000000000000000000, 0.000000000000000000, 1.000000000000000000 ) ) ;
#154 = SECURITY_CLASSIFICATION_LEVEL ( 'unclassified' ) ;
#155 = DATE_AND_TIME ( #25, #370 ) ;
#156 = CARTESIAN_POINT ( 'NONE',  ( 8.486100000000002197, 6.687796170143712733E-17, 3.180000000000000160 ) ) ;
#157 = DIRECTION ( 'NONE',  ( 1.000000000000000000, 0.000000000000000000, 0.000000000000000000 ) ) ;
#158 = AXIS2_PLACEMENT_3D ( 'NONE', #291, #358, #181 ) ;
#159 = FACE_OUTER_BOUND ( 'NONE', #201, .T. ) ;
#160 = AXIS2_PLACEMENT_3D ( 'NONE', #138, #171, #73 ) ;
#161 = EDGE_CURVE ( 'NONE', #55, #43, #198, .T. ) ;
#162 = CARTESIAN_POINT ( 'NONE',  ( 7.940000000000001279, 0.000000000000000000, 0.000000000000000000 ) ) ;
#163 = EDGE_LOOP ( 'NONE', ( #284, #396 ) ) ;
#164 = ORIENTED_EDGE ( 'NONE', *, *, #214, .T. ) ;
#165 = DIRECTION ( 'NONE',  ( -0.000000000000000000, -0.000000000000000000, -1.000000000000000000 ) ) ;
#166 = APPLICATION_CONTEXT ( 'configuration controlled 3d designs of mechanical parts and assemblies' ) ;
#167 = AXIS2_PLACEMENT_3D ( 'NONE', #349, #319, #143 ) ;
#168 = ORIENTED_EDGE ( 'NONE', *, *, #115, .F. ) ;
#169 = VECTOR ( 'NONE', #305, 1000.000000000000000 ) ;
#170 = AXIS2_PLACEMENT_3D ( 'NONE', #209, #3, #323 ) ;
#171 = DIRECTION ( 'NONE',  ( -0.000000000000000000, -0.000000000000000000, -1.000000000000000000 ) ) ;
#172 = CARTESIAN_POINT ( 'NONE',  ( -9.525000000000000355, 0.000000000000000000, 3.180000000000000160 ) ) ;
#173 = DIRECTION ( 'NONE',  ( 1.000000000000000000, 0.000000000000000000, 0.000000000000000000 ) ) ;
#174 = EDGE_CURVE ( 'NONE', #31, #341, #405, .T. ) ;
#175 = APPROVAL_DATE_TIME ( #248, #149 ) ;
#176 = DIRECTION ( 'NONE',  ( 0.000000000000000000, 0.000000000000000000, 1.000000000000000000 ) ) ;
#177 = CC_DESIGN_PERSON_AND_ORGANIZATION_ASSIGNMENT ( #126, #359, ( #200 ) ) ;
#178 = ORIENTED_EDGE ( 'NONE', *, *, #174, .F. ) ;
#179 = DIRECTION ( 'NONE',  ( 0.000000000000000000, 0.000000000000000000, 1.000000000000000000 ) ) ;
#180 = FACE_OUTER_BOUND ( 'NONE', #312, .T. ) ;
#181 = DIRECTION ( 'NONE',  ( 1.000000000000000000, 0.000000000000000000, 0.000000000000000000 ) ) ;
#182 = PERSON_AND_ORGANIZATION ( #410, #244 ) ;
#183 = APPROVAL_STATUS ( 'not_yet_approved' ) ;
#184 = DIRECTION ( 'NONE',  ( 1.000000000000000000, 0.000000000000000000, 0.000000000000000000 ) ) ;
#185 = ORIENTED_EDGE ( 'NONE', *, *, #230, .T. ) ;
#186 = AXIS2_PLACEMENT_3D ( 'NONE', #231, #113, #313 ) ;
#187 = EDGE_CURVE ( 'NONE', #404, #380, #223, .T. ) ;
#188 = ORIENTED_EDGE ( 'NONE', *, *, #50, .T. ) ;
#189 = VECTOR ( 'NONE', #75, 1000.000000000000000 ) ;
#190 = LOCAL_TIME ( 15, 36, 28.00000000000000000, #345 ) ;
#191 = DIRECTION ( 'NONE',  ( 0.000000000000000000, 0.000000000000000000, 1.000000000000000000 ) ) ;
#192 = DIRECTION ( 'NONE',  ( 0.000000000000000000, 0.000000000000000000, 1.000000000000000000 ) ) ;
#193 = ORIENTED_EDGE ( 'NONE', *, *, #389, .F. ) ;
#194 = EDGE_CURVE ( 'NONE', #22, #63, #146, .T. ) ;
#195 = ORIENTED_EDGE ( 'NONE', *, *, #101, .F. ) ;
#196 = VERTEX_POINT ( 'NONE', #140 ) ;
#197 = CC_DESIGN_PERSON_AND_ORGANIZATION_ASSIGNMENT ( #130, #219, ( #310 ) ) ;
#198 = CIRCLE ( 'NONE', #141, 9.525000000000000355 ) ;
#199 = CIRCLE ( 'NONE', #274, 0.5460999999999999188 ) ;
#200 = PRODUCT ( 'Web Model 19307_19310', 'Web Model 19307_19310', '', ( #220 ) ) ;
#201 = EDGE_LOOP ( 'NONE', ( #362, #112, #413, #285 ) ) ;
#202 = AXIS2_PLACEMENT_3D ( 'NONE', #381, #374, #206 ) ;
#203 = PLANE ( 'NONE',  #342 ) ;
#204 = ADVANCED_FACE ( 'NONE', ( #266 ), #217, .F. ) ;
#205 = CIRCLE ( 'NONE', #202, 9.525000000000000355 ) ;
#206 = DIRECTION ( 'NONE',  ( 1.000000000000000000, 0.000000000000000000, 0.000000000000000000 ) ) ;
#207 = ORIENTED_EDGE ( 'NONE', *, *, #346, .F. ) ;
#208 = EDGE_CURVE ( 'NONE', #380, #40, #271, .T. ) ;
#209 = CARTESIAN_POINT ( 'NONE',  ( 0.000000000000000000, 0.000000000000000000, 0.000000000000000000 ) ) ;
#210 = DATE_AND_TIME ( #286, #60 ) ;
#211 = CARTESIAN_POINT ( 'NONE',  ( 0.000000000000000000, 0.000000000000000000, 3.180000000000000160 ) ) ;
#212 =( NAMED_UNIT ( * ) PLANE_ANGLE_UNIT ( ) SI_UNIT ( $, .RADIAN. ) );
#213 = PERSON_AND_ORGANIZATION ( #410, #244 ) ;
#214 = EDGE_CURVE ( 'NONE', #43, #55, #205, .T. ) ;
#215 = ORIENTED_EDGE ( 'NONE', *, *, #402, .F. ) ;
#216 = CC_DESIGN_PERSON_AND_ORGANIZATION_ASSIGNMENT ( #282, #246, ( #14 ) ) ;
#217 = CYLINDRICAL_SURFACE ( 'NONE', #186, 0.5461000000000006960 ) ;
#218 = ORIENTED_EDGE ( 'NONE', *, *, #230, .F. ) ;
#219 = PERSON_AND_ORGANIZATION_ROLE ( 'creator' ) ;
#220 = MECHANICAL_CONTEXT ( 'NONE', #166, 'mechanical' ) ;
#221 = AXIS2_PLACEMENT_3D ( 'NONE', #292, #324, #355 ) ;
#222 = EDGE_LOOP ( 'NONE', ( #294, #168 ) ) ;
#223 = LINE ( 'NONE', #287, #120 ) ;
#224 = ORIENTED_EDGE ( 'NONE', *, *, #272, .F. ) ;
#225 = CARTESIAN_POINT ( 'NONE',  ( -8.486100000000002197, 0.000000000000000000, 3.180000000000000160 ) ) ;
#226 = DIRECTION ( 'NONE',  ( 1.000000000000000000, 0.000000000000000000, -0.000000000000000000 ) ) ;
#227 = FACE_OUTER_BOUND ( 'NONE', #238, .T. ) ;
#228 = DIRECTION ( 'NONE',  ( 1.000000000000000000, 0.000000000000000000, -0.000000000000000000 ) ) ;
#229 = EDGE_LOOP ( 'NONE', ( #333, #92, #392, #71 ) ) ;
#230 = EDGE_CURVE ( 'NONE', #31, #124, #360, .T. ) ;
#231 = CARTESIAN_POINT ( 'NONE',  ( 7.940000000000001279, 0.000000000000000000, 3.180000000000000160 ) ) ;
#232 = FACE_OUTER_BOUND ( 'NONE', #222, .T. ) ;
#233 = DIRECTION ( 'NONE',  ( 1.000000000000000000, 0.000000000000000000, 0.000000000000000000 ) ) ;
#234 = CARTESIAN_POINT ( 'NONE',  ( -8.486100000000002197, 0.000000000000000000, 3.180000000000000160 ) ) ;
#235 = ORIENTED_EDGE ( 'NONE', *, *, #78, .F. ) ;
#236 = FACE_BOUND ( 'NONE', #385, .T. ) ;
#237 = AXIS2_PLACEMENT_3D ( 'NONE', #87, #268, #270 ) ;
#238 = EDGE_LOOP ( 'NONE', ( #329, #257, #45, #371 ) ) ;
#239 = CIRCLE ( 'NONE', #47, 9.524999999999998579 ) ;
#240 = EDGE_LOOP ( 'NONE', ( #218, #195 ) ) ;
#241 = PLANE ( 'NONE',  #28 ) ;
#242 = LINE ( 'NONE', #337, #169 ) ;
#243 = APPROVAL_STATUS ( 'not_yet_approved' ) ;
#244 = ORGANIZATION ( 'UNSPECIFIED', 'UNSPECIFIED', '' ) ;
#245 = CARTESIAN_POINT ( 'NONE',  ( 7.940000000000001279, 0.000000000000000000, 3.180000000000000160 ) ) ;
#246 = PERSON_AND_ORGANIZATION_ROLE ( 'design_supplier' ) ;
#247 = DIRECTION ( 'NONE',  ( 1.000000000000000000, 0.000000000000000000, 0.000000000000000000 ) ) ;
#248 = DATE_AND_TIME ( #1, #102 ) ;
#249 = CC_DESIGN_DATE_AND_TIME_ASSIGNMENT ( #255, #58, ( #90 ) ) ;
#250 = DESIGN_CONTEXT ( 'detailed design', #18, 'design' ) ;
#251 = ORIENTED_EDGE ( 'NONE', *, *, #50, .F. ) ;
#252 = ADVANCED_FACE ( 'NONE', ( #86, #306, #236, #376 ), #321, .T. ) ;
#253 = CYLINDRICAL_SURFACE ( 'NONE', #64, 0.5461000000000006960 ) ;
#254 = DIRECTION ( 'NONE',  ( 1.000000000000000000, 0.000000000000000000, 0.000000000000000000 ) ) ;
#255 = DATE_AND_TIME ( #108, #190 ) ;
#256 = CARTESIAN_POINT ( 'NONE',  ( 7.940000000000001279, 0.000000000000000000, 3.180000000000000160 ) ) ;
#257 = ORIENTED_EDGE ( 'NONE', *, *, #78, .T. ) ;
#258 = ADVANCED_FACE ( 'NONE', ( #42 ), #400, .F. ) ;
#259 = AXIS2_PLACEMENT_3D ( 'NONE', #245, #192, #59 ) ;
#260 = CARTESIAN_POINT ( 'NONE',  ( -7.940000000000001279, 0.000000000000000000, 0.000000000000000000 ) ) ;
#261 = CARTESIAN_POINT ( 'NONE',  ( -9.524999999999998579, 0.000000000000000000, -0.002000000000000000042 ) ) ;
#262 = CARTESIAN_POINT ( 'NONE',  ( -6.349999999999999645, 0.000000000000000000, 0.000000000000000000 ) ) ;
#263 = FACE_OUTER_BOUND ( 'NONE', #401, .T. ) ;
#264 = DIRECTION ( 'NONE',  ( 1.000000000000000000, 0.000000000000000000, 0.000000000000000000 ) ) ;
#265 = DIRECTION ( 'NONE',  ( 1.000000000000000000, 0.000000000000000000, -0.000000000000000000 ) ) ;
#266 = FACE_OUTER_BOUND ( 'NONE', #368, .T. ) ;
#267 = APPROVAL_DATE_TIME ( #155, #395 ) ;
#268 = DIRECTION ( 'NONE',  ( -0.000000000000000000, -0.000000000000000000, -1.000000000000000000 ) ) ;
#269 = EDGE_LOOP ( 'NONE', ( #235, #188, #98, #207 ) ) ;
#270 = DIRECTION ( 'NONE',  ( -1.000000000000000000, 0.000000000000000000, 0.000000000000000000 ) ) ;
#271 = CIRCLE ( 'NONE', #167, 6.349999999999999645 ) ;
#272 = EDGE_CURVE ( 'NONE', #104, #63, #339, .T. ) ;
#273 = FACE_OUTER_BOUND ( 'NONE', #295, .T. ) ;
#274 = AXIS2_PLACEMENT_3D ( 'NONE', #384, #2, #233 ) ;
#275 = LINE ( 'NONE', #125, #364 ) ;
#276 = DIRECTION ( 'NONE',  ( 1.000000000000000000, 0.000000000000000000, 0.000000000000000000 ) ) ;
#277 = PERSON_AND_ORGANIZATION_ROLE ( 'classification_officer' ) ;
#278 = EDGE_LOOP ( 'NONE', ( #300, #135 ) ) ;
#279 = CARTESIAN_POINT ( 'NONE',  ( 0.000000000000000000, 0.000000000000000000, -0.002000000000000000042 ) ) ;
#280 = AXIS2_PLACEMENT_3D ( 'NONE', #85, #11, #327 ) ;
#281 = APPROVAL_PERSON_ORGANIZATION ( #95, #395, #391 ) ;
#282 = PERSON_AND_ORGANIZATION ( #410, #244 ) ;
#283 = DIRECTION ( 'NONE',  ( -0.000000000000000000, -0.000000000000000000, -1.000000000000000000 ) ) ;
#284 = ORIENTED_EDGE ( 'NONE', *, *, #377, .F. ) ;
#285 = ORIENTED_EDGE ( 'NONE', *, *, #134, .T. ) ;
#286 = CALENDAR_DATE ( 2021, 23, 8 ) ;
#287 = CARTESIAN_POINT ( 'NONE',  ( -6.349999999999999645, 0.000000000000000000, 3.180000000000000160 ) ) ;
#288 = DIRECTION ( 'NONE',  ( -0.000000000000000000, -0.000000000000000000, -1.000000000000000000 ) ) ;
#289 = CARTESIAN_POINT ( 'NONE',  ( 7.393900000000000361, 0.000000000000000000, 0.000000000000000000 ) ) ;
#290 = APPROVAL_PERSON_ORGANIZATION ( #213, #136, #10 ) ;
#291 = CARTESIAN_POINT ( 'NONE',  ( -7.940000000000001279, 0.000000000000000000, 0.000000000000000000 ) ) ;
#292 = CARTESIAN_POINT ( 'NONE',  ( -7.940000000000001279, 0.000000000000000000, 3.180000000000000160 ) ) ;
#293 = AXIS2_PLACEMENT_3D ( 'NONE', #162, #191, #131 ) ;
#294 = ORIENTED_EDGE ( 'NONE', *, *, #134, .F. ) ;
#295 = EDGE_LOOP ( 'NONE', ( #193, #304, #99, #224 ) ) ;
#296 = CARTESIAN_POINT ( 'NONE',  ( 9.525000000000000355, 1.166476076187853627E-15, 3.180000000000000160 ) ) ;
#297 = DIRECTION ( 'NONE',  ( -1.000000000000000000, 0.000000000000000000, 0.000000000000000000 ) ) ;
#298 = CIRCLE ( 'NONE', #293, 0.5461000000000006960 ) ;
#299 = AXIS2_PLACEMENT_3D ( 'NONE', #388, #100, #264 ) ;
#300 = ORIENTED_EDGE ( 'NONE', *, *, #402, .T. ) ;
#301 = VECTOR ( 'NONE', #288, 1000.000000000000000 ) ;
#302 = ORIENTED_EDGE ( 'NONE', *, *, #35, .F. ) ;
#303 = PERSON_AND_ORGANIZATION_ROLE ( 'creator' ) ;
#304 = ORIENTED_EDGE ( 'NONE', *, *, #379, .T. ) ;
#305 = DIRECTION ( 'NONE',  ( -0.000000000000000000, -0.000000000000000000, -1.000000000000000000 ) ) ;
#306 = FACE_OUTER_BOUND ( 'NONE', #152, .T. ) ;
#307 = ORIENTED_EDGE ( 'NONE', *, *, #88, .T. ) ;
#308 = ORIENTED_EDGE ( 'NONE', *, *, #161, .T. ) ;
#309 = CIRCLE ( 'NONE', #97, 9.524999999999998579 ) ;
#310 = PRODUCT_DEFINITION ( 'UNKNOWN', '', #14, #250 ) ;
#311 = VERTEX_POINT ( 'NONE', #348 ) ;
#312 = EDGE_LOOP ( 'NONE', ( #49, #307, #139, #118 ) ) ;
#313 = DIRECTION ( 'NONE',  ( -1.000000000000000000, 0.000000000000000000, 0.000000000000000000 ) ) ;
#314 = PRODUCT_RELATED_PRODUCT_CATEGORY ( 'detail', '', ( #200 ) ) ;
#315 = DIRECTION ( 'NONE',  ( 0.000000000000000000, 0.000000000000000000, 1.000000000000000000 ) ) ;
#316 = CLOSED_SHELL ( 'NONE', ( #204, #29, #318, #68, #252, #76, #258, #114, #372, #415, #37, #142, #103 ) ) ;
#317 = AXIS2_PLACEMENT_3D ( 'NONE', #211, #123, #184 ) ;
#318 = ADVANCED_FACE ( 'NONE', ( #227 ), #34, .F. ) ;
#319 = DIRECTION ( 'NONE',  ( 0.000000000000000000, 0.000000000000000000, 1.000000000000000000 ) ) ;
#320 = VECTOR ( 'NONE', #165, 1000.000000000000000 ) ;
#321 = PLANE ( 'NONE',  #54 ) ;
#322 = COORDINATED_UNIVERSAL_TIME_OFFSET ( 5, 0, .BEHIND. ) ;
#323 = DIRECTION ( 'NONE',  ( 1.000000000000000000, 0.000000000000000000, 0.000000000000000000 ) ) ;
#324 = DIRECTION ( 'NONE',  ( -0.000000000000000000, -0.000000000000000000, -1.000000000000000000 ) ) ;
#325 = CYLINDRICAL_SURFACE ( 'NONE', #24, 9.525000000000000355 ) ;
#326 = PLANE ( 'NONE',  #12 ) ;
#327 = DIRECTION ( 'NONE',  ( 1.000000000000000000, 0.000000000000000000, 0.000000000000000000 ) ) ;
#328 = CARTESIAN_POINT ( 'NONE',  ( 0.000000000000000000, 0.000000000000000000, 0.000000000000000000 ) ) ;
#329 = ORIENTED_EDGE ( 'NONE', *, *, #62, .T. ) ;
#330 = VERTEX_POINT ( 'NONE', #261 ) ;
#331 = APPROVAL_PERSON_ORGANIZATION ( #182, #149, #369 ) ;
#332 = DIRECTION ( 'NONE',  ( -0.000000000000000000, -0.000000000000000000, -1.000000000000000000 ) ) ;
#333 = ORIENTED_EDGE ( 'NONE', *, *, #91, .F. ) ;
#334 = CARTESIAN_POINT ( 'NONE',  ( 0.000000000000000000, 0.000000000000000000, 0.000000000000000000 ) ) ;
#335 = AXIS2_PLACEMENT_3D ( 'NONE', #352, #80, #147 ) ;
#336 = CYLINDRICAL_SURFACE ( 'NONE', #221, 0.5461000000000006960 ) ;
#337 = CARTESIAN_POINT ( 'NONE',  ( 9.525000000000000355, 1.166476076187853627E-15, 3.180000000000000160 ) ) ;
#338 = DIRECTION ( 'NONE',  ( 1.000000000000000000, 0.000000000000000000, -0.000000000000000000 ) ) ;
#339 = CIRCLE ( 'NONE', #83, 0.5460999999999999188 ) ;
#340 =( LENGTH_UNIT ( ) NAMED_UNIT ( * ) SI_UNIT ( .MILLI., .METRE. ) );
#341 = VERTEX_POINT ( 'NONE', #289 ) ;
#342 = AXIS2_PLACEMENT_3D ( 'NONE', #411, #176, #228 ) ;
#343 = FACE_OUTER_BOUND ( 'NONE', #5, .T. ) ;
#344 = DIRECTION ( 'NONE',  ( -0.000000000000000000, -0.000000000000000000, -1.000000000000000000 ) ) ;
#345 = COORDINATED_UNIVERSAL_TIME_OFFSET ( 5, 0, .BEHIND. ) ;
#346 = EDGE_CURVE ( 'NONE', #40, #380, #52, .T. ) ;
#347 = ORIENTED_EDGE ( 'NONE', *, *, #272, .T. ) ;
#348 = CARTESIAN_POINT ( 'NONE',  ( 8.486100000000002197, 6.687796170143712733E-17, 0.000000000000000000 ) ) ;
#349 = CARTESIAN_POINT ( 'NONE',  ( 0.000000000000000000, 0.000000000000000000, 0.000000000000000000 ) ) ;
#350 = COORDINATED_UNIVERSAL_TIME_OFFSET ( 5, 0, .BEHIND. ) ;
#351 = DIRECTION ( 'NONE',  ( 0.000000000000000000, 0.000000000000000000, 1.000000000000000000 ) ) ;
#352 = CARTESIAN_POINT ( 'NONE',  ( 7.940000000000001279, 0.000000000000000000, 3.180000000000000160 ) ) ;
#353 = DIRECTION ( 'NONE',  ( -1.000000000000000000, 0.000000000000000000, 0.000000000000000000 ) ) ;
#354 = CYLINDRICAL_SURFACE ( 'NONE', #237, 9.525000000000000355 ) ;
#355 = DIRECTION ( 'NONE',  ( -1.000000000000000000, 0.000000000000000000, 0.000000000000000000 ) ) ;
#356 = AXIS2_PLACEMENT_3D ( 'NONE', #382, #406, #30 ) ;
#357 = PERSON_AND_ORGANIZATION ( #410, #244 ) ;
#358 = DIRECTION ( 'NONE',  ( 0.000000000000000000, 0.000000000000000000, 1.000000000000000000 ) ) ;
#359 = PERSON_AND_ORGANIZATION_ROLE ( 'design_owner' ) ;
#360 = CIRCLE ( 'NONE', #361, 0.5461000000000006960 ) ;
#361 = AXIS2_PLACEMENT_3D ( 'NONE', #256, #109, #39 ) ;
#362 = ORIENTED_EDGE ( 'NONE', *, *, #88, .F. ) ;
#363 = AXIS2_PLACEMENT_3D ( 'NONE', #106, #179, #157 ) ;
#364 = VECTOR ( 'NONE', #387, 1000.000000000000000 ) ;
#365 = APPROVAL_STATUS ( 'not_yet_approved' ) ;
#366 = APPLICATION_PROTOCOL_DEFINITION ( 'international standard', 'config_control_design', 1994, #166 ) ;
#367 = ORIENTED_EDGE ( 'NONE', *, *, #194, .F. ) ;
#368 = EDGE_LOOP ( 'NONE', ( #185, #57, #215, #178 ) ) ;
#369 = APPROVAL_ROLE ( '' ) ;
#370 = LOCAL_TIME ( 15, 36, 28.00000000000000000, #48 ) ;
#371 = ORIENTED_EDGE ( 'NONE', *, *, #187, .F. ) ;
#372 = ADVANCED_FACE ( 'NONE', ( #132 ), #19, .F. ) ;
#373 = CALENDAR_DATE ( 2021, 23, 8 ) ;
#374 = DIRECTION ( 'NONE',  ( 0.000000000000000000, 0.000000000000000000, 1.000000000000000000 ) ) ;
#375 = DIRECTION ( 'NONE',  ( 1.000000000000000000, 0.000000000000000000, 0.000000000000000000 ) ) ;
#376 = FACE_BOUND ( 'NONE', #240, .T. ) ;
#377 = EDGE_CURVE ( 'NONE', #22, #150, #199, .T. ) ;
#378 = DIRECTION ( 'NONE',  ( -0.000000000000000000, -0.000000000000000000, -1.000000000000000000 ) ) ;
#379 = EDGE_CURVE ( 'NONE', #150, #22, #27, .T. ) ;
#380 = VERTEX_POINT ( 'NONE', #262 ) ;
#381 = CARTESIAN_POINT ( 'NONE',  ( 0.000000000000000000, 0.000000000000000000, 3.180000000000000160 ) ) ;
#382 = CARTESIAN_POINT ( 'NONE',  ( 0.000000000000000000, 0.000000000000000000, 3.180000000000000160 ) ) ;
#383 = AXIS2_PLACEMENT_3D ( 'NONE', #328, #20, #276 ) ;
#384 = CARTESIAN_POINT ( 'NONE',  ( -7.940000000000001279, 0.000000000000000000, 3.180000000000000160 ) ) ;
#385 = EDGE_LOOP ( 'NONE', ( #144, #251 ) ) ;
#386 = VERTEX_POINT ( 'NONE', #111 ) ;
#387 = DIRECTION ( 'NONE',  ( -0.000000000000000000, -0.000000000000000000, -1.000000000000000000 ) ) ;
#388 = CARTESIAN_POINT ( 'NONE',  ( 7.940000000000001279, 0.000000000000000000, 0.000000000000000000 ) ) ;
#389 = EDGE_CURVE ( 'NONE', #150, #104, #275, .T. ) ;
#390 = COORDINATED_UNIVERSAL_TIME_OFFSET ( 5, 0, .BEHIND. ) ;
#391 = APPROVAL_ROLE ( '' ) ;
#392 = ORIENTED_EDGE ( 'NONE', *, *, #174, .T. ) ;
#393 = CIRCLE ( 'NONE', #158, 0.5460999999999999188 ) ;
#394 = DIRECTION ( 'NONE',  ( 1.000000000000000000, 0.000000000000000000, -0.000000000000000000 ) ) ;
#395 = APPROVAL ( #365, 'UNSPECIFIED' ) ;
#396 = ORIENTED_EDGE ( 'NONE', *, *, #379, .F. ) ;
#397 = CIRCLE ( 'NONE', #280, 6.349999999999999645 ) ;
#398 = APPLICATION_PROTOCOL_DEFINITION ( 'international standard', 'config_control_design', 1994, #18 ) ;
#399 = PLANE ( 'NONE',  #74 ) ;
#400 = CYLINDRICAL_SURFACE ( 'NONE', #356, 6.349999999999999645 ) ;
#401 = EDGE_LOOP ( 'NONE', ( #82, #77, #302, #367 ) ) ;
#402 = EDGE_CURVE ( 'NONE', #341, #311, #298, .T. ) ;
#403 = CC_DESIGN_APPROVAL ( #395, ( #310 ) ) ;
#404 = VERTEX_POINT ( 'NONE', #94 ) ;
#405 = LINE ( 'NONE', #116, #301 ) ;
#406 = DIRECTION ( 'NONE',  ( -0.000000000000000000, -0.000000000000000000, -1.000000000000000000 ) ) ;
#407 = CARTESIAN_POINT ( 'NONE',  ( 7.393900000000000361, 0.000000000000000000, 3.180000000000000160 ) ) ;
#408 = FACE_OUTER_BOUND ( 'NONE', #278, .T. ) ;
#409 = CARTESIAN_POINT ( 'NONE',  ( -7.393900000000001249, 6.687796170143697942E-17, 3.180000000000000160 ) ) ;
#410 = PERSON ( 'UNSPECIFIED', 'UNSPECIFIED', 'UNSPECIFIED', ('UNSPECIFIED'), ('UNSPECIFIED'), ('UNSPECIFIED') ) ;
#411 = CARTESIAN_POINT ( 'NONE',  ( 0.000000000000000000, 0.000000000000000000, 0.000000000000000000 ) ) ;
#412 = EDGE_LOOP ( 'NONE', ( #15, #347 ) ) ;
#413 = ORIENTED_EDGE ( 'NONE', *, *, #38, .T. ) ;
#414 = CARTESIAN_POINT ( 'NONE',  ( 0.000000000000000000, 0.000000000000000000, -0.002000000000000000042 ) ) ;
#415 = ADVANCED_FACE ( 'NONE', ( #408 ), #241, .T. ) ;
ENDSEC;
END-ISO-10303-21;
