ISO-10303-21;
HEADER;
FILE_DESCRIPTION (( 'STEP AP203' ),
    '1' );
FILE_NAME ('Web Model 45569_36981.step',
    '2019-01-07T15:34:35',
    ( '' ),
    ( '' ),
    'SwSTEP 2.0',
    'SolidWorks 2016',
    '' );
FILE_SCHEMA (( 'CONFIG_CONTROL_DESIGN' ));
ENDSEC;

DATA;
#1 = CALENDAR_DATE ( 2019, 7, 1 ) ;
#2 = CARTESIAN_POINT ( 'NONE',  ( -15.00000000000000000, 0.0000000000000000000, -1.500000000000000000 ) ) ;
#3 = ORIENTED_EDGE ( 'NONE', *, *, #89, .F. ) ;
#4 = CC_DESIGN_PERSON_AND_ORGANIZATION_ASSIGNMENT ( #165, #96, ( #148 ) ) ;
#5 = PERSON ( 'UNSPECIFIED', 'UNSPECIFIED', 'UNSPECIFIED', ('UNSPECIFIED'), ('UNSPECIFIED'), ('UNSPECIFIED') ) ;
#6 = AXIS2_PLACEMENT_3D ( 'NONE', #94, #22, #114 ) ;
#7 = DIRECTION ( 'NONE',  ( 1.000000000000000000, 0.0000000000000000000, 0.0000000000000000000 ) ) ;
#8 = ORIENTED_EDGE ( 'NONE', *, *, #83, .T. ) ;
#9 = CC_DESIGN_PERSON_AND_ORGANIZATION_ASSIGNMENT ( #43, #38, ( #66 ) ) ;
#10 = MECHANICAL_CONTEXT ( 'NONE', #86, 'mechanical' ) ;
#11 = CC_DESIGN_APPROVAL ( #129, ( #66 ) ) ;
#12 = ORIENTED_EDGE ( 'NONE', *, *, #27, .F. ) ;
#13 = LOCAL_TIME ( 10, 34, 35.00000000000000000, #121 ) ;
#14 = CARTESIAN_POINT ( 'NONE',  ( 15.00000000000000000, 1.836970198721029600E-015, -1.500000000000000000 ) ) ;
#15 = PERSON_AND_ORGANIZATION ( #5, #156 ) ;
#16 = CARTESIAN_POINT ( 'NONE',  ( 15.00000000000000000, 1.836970198721029600E-015, 1.500000000000000000 ) ) ;
#17 = CARTESIAN_POINT ( 'NONE',  ( 0.0000000000000000000, 0.0000000000000000000, -1.500000000000000000 ) ) ;
#18 = FACE_OUTER_BOUND ( 'NONE', #128, .T. ) ;
#19 = CARTESIAN_POINT ( 'NONE',  ( 0.0000000000000000000, 0.0000000000000000000, 1.500000000000000000 ) ) ;
#20 = UNCERTAINTY_MEASURE_WITH_UNIT (LENGTH_MEASURE( 1.000000000000000100E-005 ), #23, 'distance_accuracy_value', 'NONE');
#21 = VERTEX_POINT ( 'NONE', #14 ) ;
#22 = DIRECTION ( 'NONE',  ( 0.0000000000000000000, 0.0000000000000000000, 1.000000000000000000 ) ) ;
#23 =( LENGTH_UNIT ( ) NAMED_UNIT ( * ) SI_UNIT ( .MILLI., .METRE. ) );
#24 = APPROVAL_DATE_TIME ( #65, #76 ) ;
#25 = APPROVAL_ROLE ( '' ) ;
#26 = PERSON_AND_ORGANIZATION ( #5, #156 ) ;
#27 = EDGE_CURVE ( 'NONE', #29, #21, #168, .T. ) ;
#28 = CYLINDRICAL_SURFACE ( 'NONE', #100, 15.00000000000000000 ) ;
#29 = VERTEX_POINT ( 'NONE', #79 ) ;
#30 = LOCAL_TIME ( 10, 34, 35.00000000000000000, #75 ) ;
#31 = ORIENTED_EDGE ( 'NONE', *, *, #27, .T. ) ;
#32 = ORIENTED_EDGE ( 'NONE', *, *, #83, .F. ) ;
#33 = DIRECTION ( 'NONE',  ( 1.000000000000000000, 0.0000000000000000000, 0.0000000000000000000 ) ) ;
#34 = DIRECTION ( 'NONE',  ( 1.000000000000000000, 0.0000000000000000000, 0.0000000000000000000 ) ) ;
#35 = LOCAL_TIME ( 10, 34, 35.00000000000000000, #116 ) ;
#36 = AXIS2_PLACEMENT_3D ( 'NONE', #17, #93, #7 ) ;
#37 = DIRECTION ( 'NONE',  ( -0.0000000000000000000, -0.0000000000000000000, -1.000000000000000000 ) ) ;
#38 = PERSON_AND_ORGANIZATION_ROLE ( 'design_supplier' ) ;
#39 = PRODUCT_DEFINITION_SHAPE ( 'NONE', 'NONE',  #61 ) ;
#40 = PERSON_AND_ORGANIZATION_ROLE ( 'creator' ) ;
#41 = VERTEX_POINT ( 'NONE', #2 ) ;
#42 = CC_DESIGN_PERSON_AND_ORGANIZATION_ASSIGNMENT ( #91, #115, ( #66 ) ) ;
#43 = PERSON_AND_ORGANIZATION ( #5, #156 ) ;
#44 = CARTESIAN_POINT ( 'NONE',  ( 0.0000000000000000000, 0.0000000000000000000, 1.500000000000000000 ) ) ;
#45 = CYLINDRICAL_SURFACE ( 'NONE', #113, 15.00000000000000000 ) ;
#46 = CARTESIAN_POINT ( 'NONE',  ( -15.00000000000000000, 0.0000000000000000000, 1.500000000000000000 ) ) ;
#47 = APPROVAL_DATE_TIME ( #77, #129 ) ;
#48 = PLANE ( 'NONE',  #80 ) ;
#49 = CARTESIAN_POINT ( 'NONE',  ( 0.0000000000000000000, 0.0000000000000000000, 1.500000000000000000 ) ) ;
#50 = AXIS2_PLACEMENT_3D ( 'NONE', #134, #97, #130 ) ;
#51 = DIRECTION ( 'NONE',  ( 0.0000000000000000000, 0.0000000000000000000, 1.000000000000000000 ) ) ;
#52 = CIRCLE ( 'NONE', #124, 15.00000000000000000 ) ;
#53 = APPLICATION_PROTOCOL_DEFINITION ( 'international standard', 'config_control_design', 1994, #70 ) ;
#54 = APPROVAL_ROLE ( '' ) ;
#55 = APPROVAL_DATE_TIME ( #62, #135 ) ;
#56 = DATE_TIME_ROLE ( 'creation_date' ) ;
#57 = APPLICATION_PROTOCOL_DEFINITION ( 'international standard', 'config_control_design', 1994, #86 ) ;
#58 = AXIS2_PLACEMENT_3D ( 'NONE', #103, #163, #34 ) ;
#59 = APPROVAL_PERSON_ORGANIZATION ( #131, #135, #25 ) ;
#60 = CIRCLE ( 'NONE', #68, 15.00000000000000000 ) ;
#61 = PRODUCT_DEFINITION ( 'UNKNOWN', '', #66, #110 ) ;
#62 = DATE_AND_TIME ( #174, #88 ) ;
#63 = EDGE_LOOP ( 'NONE', ( #144, #8 ) ) ;
#64 = CC_DESIGN_APPROVAL ( #135, ( #61 ) ) ;
#65 = DATE_AND_TIME ( #101, #35 ) ;
#66 = PRODUCT_DEFINITION_FORMATION_WITH_SPECIFIED_SOURCE ( 'ANY', '', #148, .NOT_KNOWN. ) ;
#67 = CARTESIAN_POINT ( 'NONE',  ( -15.00000000000000000, 0.0000000000000000000, 1.500000000000000000 ) ) ;
#68 = AXIS2_PLACEMENT_3D ( 'NONE', #146, #161, #33 ) ;
#69 = DIRECTION ( 'NONE',  ( 1.000000000000000000, 0.0000000000000000000, 0.0000000000000000000 ) ) ;
#70 = APPLICATION_CONTEXT ( 'configuration controlled 3d designs of mechanical parts and assemblies' ) ;
#71 = ORIENTED_EDGE ( 'NONE', *, *, #74, .F. ) ;
#72 = CC_DESIGN_SECURITY_CLASSIFICATION ( #92, ( #66 ) ) ;
#73 = DATE_TIME_ROLE ( 'classification_date' ) ;
#74 = EDGE_CURVE ( 'NONE', #21, #41, #123, .T. ) ;
#75 = COORDINATED_UNIVERSAL_TIME_OFFSET ( 5, 0, .BEHIND. ) ;
#76 = APPROVAL ( #170, 'UNSPECIFIED' ) ;
#77 = DATE_AND_TIME ( #85, #147 ) ;
#78 = DATE_AND_TIME ( #1, #13 ) ;
#79 = CARTESIAN_POINT ( 'NONE',  ( 15.00000000000000000, 1.836970198721029600E-015, 1.500000000000000000 ) ) ;
#80 = AXIS2_PLACEMENT_3D ( 'NONE', #49, #51, #106 ) ;
#81 = CC_DESIGN_PERSON_AND_ORGANIZATION_ASSIGNMENT ( #15, #40, ( #61 ) ) ;
#82 = MANIFOLD_SOLID_BREP ( 'Boss-Extrude1', #87 ) ;
#83 = EDGE_CURVE ( 'NONE', #29, #132, #118, .T. ) ;
#84 = CC_DESIGN_DATE_AND_TIME_ASSIGNMENT ( #164, #56, ( #61 ) ) ;
#85 = CALENDAR_DATE ( 2019, 7, 1 ) ;
#86 = APPLICATION_CONTEXT ( 'configuration controlled 3d designs of mechanical parts and assemblies' ) ;
#87 = CLOSED_SHELL ( 'NONE', ( #102, #173, #119, #143 ) ) ;
#88 = LOCAL_TIME ( 10, 34, 35.00000000000000000, #159 ) ;
#89 = EDGE_CURVE ( 'NONE', #41, #21, #60, .T. ) ;
#90 = CC_DESIGN_APPROVAL ( #76, ( #92 ) ) ;
#91 = PERSON_AND_ORGANIZATION ( #5, #156 ) ;
#92 = SECURITY_CLASSIFICATION ( '', '', #133 ) ;
#93 = DIRECTION ( 'NONE',  ( 0.0000000000000000000, 0.0000000000000000000, 1.000000000000000000 ) ) ;
#94 = CARTESIAN_POINT ( 'NONE',  ( 0.0000000000000000000, 0.0000000000000000000, -1.500000000000000000 ) ) ;
#95 = SHAPE_DEFINITION_REPRESENTATION ( #39, #137 ) ;
#96 = PERSON_AND_ORGANIZATION_ROLE ( 'design_owner' ) ;
#97 = DIRECTION ( 'NONE',  ( 0.0000000000000000000, 0.0000000000000000000, 1.000000000000000000 ) ) ;
#98 = ORIENTED_EDGE ( 'NONE', *, *, #150, .F. ) ;
#99 = COORDINATED_UNIVERSAL_TIME_OFFSET ( 5, 0, .BEHIND. ) ;
#100 = AXIS2_PLACEMENT_3D ( 'NONE', #44, #112, #122 ) ;
#101 = CALENDAR_DATE ( 2019, 7, 1 ) ;
#102 = ADVANCED_FACE ( 'NONE', ( #18 ), #28, .T. ) ;
#103 = CARTESIAN_POINT ( 'NONE',  ( 0.0000000000000000000, 0.0000000000000000000, 1.500000000000000000 ) ) ;
#104 = ORIENTED_EDGE ( 'NONE', *, *, #74, .T. ) ;
#105 = CC_DESIGN_PERSON_AND_ORGANIZATION_ASSIGNMENT ( #158, #141, ( #92 ) ) ;
#106 = DIRECTION ( 'NONE',  ( 1.000000000000000000, 0.0000000000000000000, -0.0000000000000000000 ) ) ;
#107 = PLANE ( 'NONE',  #6 ) ;
#108 =( NAMED_UNIT ( * ) PLANE_ANGLE_UNIT ( ) SI_UNIT ( $, .RADIAN. ) );
#109 = APPROVAL_STATUS ( 'not_yet_approved' ) ;
#110 = DESIGN_CONTEXT ( 'detailed design', #70, 'design' ) ;
#111 = PRODUCT_RELATED_PRODUCT_CATEGORY ( 'detail', '', ( #148 ) ) ;
#112 = DIRECTION ( 'NONE',  ( -0.0000000000000000000, -0.0000000000000000000, -1.000000000000000000 ) ) ;
#113 = AXIS2_PLACEMENT_3D ( 'NONE', #166, #149, #172 ) ;
#114 = DIRECTION ( 'NONE',  ( 1.000000000000000000, 0.0000000000000000000, -0.0000000000000000000 ) ) ;
#115 = PERSON_AND_ORGANIZATION_ROLE ( 'creator' ) ;
#116 = COORDINATED_UNIVERSAL_TIME_OFFSET ( 5, 0, .BEHIND. ) ;
#117 = EDGE_LOOP ( 'NONE', ( #3, #71 ) ) ;
#118 = CIRCLE ( 'NONE', #58, 15.00000000000000000 ) ;
#119 = ADVANCED_FACE ( 'NONE', ( #162 ), #48, .T. ) ;
#120 = VECTOR ( 'NONE', #136, 1000.000000000000000 ) ;
#121 = COORDINATED_UNIVERSAL_TIME_OFFSET ( 5, 0, .BEHIND. ) ;
#122 = DIRECTION ( 'NONE',  ( -1.000000000000000000, 0.0000000000000000000, 0.0000000000000000000 ) ) ;
#123 = CIRCLE ( 'NONE', #36, 15.00000000000000000 ) ;
#124 = AXIS2_PLACEMENT_3D ( 'NONE', #19, #139, #69 ) ;
#125 = EDGE_LOOP ( 'NONE', ( #12, #140, #169, #142 ) ) ;
#126 = APPROVAL_PERSON_ORGANIZATION ( #26, #129, #54 ) ;
#127 = FACE_OUTER_BOUND ( 'NONE', #125, .T. ) ;
#128 = EDGE_LOOP ( 'NONE', ( #32, #31, #104, #98 ) ) ;
#129 = APPROVAL ( #152, 'UNSPECIFIED' ) ;
#130 = DIRECTION ( 'NONE',  ( 1.000000000000000000, 0.0000000000000000000, 0.0000000000000000000 ) ) ;
#131 = PERSON_AND_ORGANIZATION ( #5, #156 ) ;
#132 = VERTEX_POINT ( 'NONE', #46 ) ;
#133 = SECURITY_CLASSIFICATION_LEVEL ( 'unclassified' ) ;
#134 = CARTESIAN_POINT ( 'NONE',  ( 0.0000000000000000000, 0.0000000000000000000, 0.0000000000000000000 ) ) ;
#135 = APPROVAL ( #109, 'UNSPECIFIED' ) ;
#136 = DIRECTION ( 'NONE',  ( -0.0000000000000000000, -0.0000000000000000000, -1.000000000000000000 ) ) ;
#137 = ADVANCED_BREP_SHAPE_REPRESENTATION ( 'Web Model 45569_36981', ( #82, #50 ), #171 ) ;
#138 = CC_DESIGN_DATE_AND_TIME_ASSIGNMENT ( #78, #73, ( #92 ) ) ;
#139 = DIRECTION ( 'NONE',  ( 0.0000000000000000000, 0.0000000000000000000, 1.000000000000000000 ) ) ;
#140 = ORIENTED_EDGE ( 'NONE', *, *, #160, .F. ) ;
#141 = PERSON_AND_ORGANIZATION_ROLE ( 'classification_officer' ) ;
#142 = ORIENTED_EDGE ( 'NONE', *, *, #89, .T. ) ;
#143 = ADVANCED_FACE ( 'NONE', ( #157 ), #107, .F. ) ;
#144 = ORIENTED_EDGE ( 'NONE', *, *, #160, .T. ) ;
#145 = APPROVAL_PERSON_ORGANIZATION ( #153, #76, #155 ) ;
#146 = CARTESIAN_POINT ( 'NONE',  ( 0.0000000000000000000, 0.0000000000000000000, -1.500000000000000000 ) ) ;
#147 = LOCAL_TIME ( 10, 34, 35.00000000000000000, #99 ) ;
#148 = PRODUCT ( 'Web Model 45569_36981', 'Web Model 45569_36981', '', ( #10 ) ) ;
#149 = DIRECTION ( 'NONE',  ( -0.0000000000000000000, -0.0000000000000000000, -1.000000000000000000 ) ) ;
#150 = EDGE_CURVE ( 'NONE', #132, #41, #151, .T. ) ;
#151 = LINE ( 'NONE', #67, #175 ) ;
#152 = APPROVAL_STATUS ( 'not_yet_approved' ) ;
#153 = PERSON_AND_ORGANIZATION ( #5, #156 ) ;
#154 =( NAMED_UNIT ( * ) SI_UNIT ( $, .STERADIAN. ) SOLID_ANGLE_UNIT ( ) );
#155 = APPROVAL_ROLE ( '' ) ;
#156 = ORGANIZATION ( 'UNSPECIFIED', 'UNSPECIFIED', '' ) ;
#157 = FACE_OUTER_BOUND ( 'NONE', #117, .T. ) ;
#158 = PERSON_AND_ORGANIZATION ( #5, #156 ) ;
#159 = COORDINATED_UNIVERSAL_TIME_OFFSET ( 5, 0, .BEHIND. ) ;
#160 = EDGE_CURVE ( 'NONE', #132, #29, #52, .T. ) ;
#161 = DIRECTION ( 'NONE',  ( 0.0000000000000000000, 0.0000000000000000000, 1.000000000000000000 ) ) ;
#162 = FACE_OUTER_BOUND ( 'NONE', #63, .T. ) ;
#163 = DIRECTION ( 'NONE',  ( 0.0000000000000000000, 0.0000000000000000000, 1.000000000000000000 ) ) ;
#164 = DATE_AND_TIME ( #167, #30 ) ;
#165 = PERSON_AND_ORGANIZATION ( #5, #156 ) ;
#166 = CARTESIAN_POINT ( 'NONE',  ( 0.0000000000000000000, 0.0000000000000000000, 1.500000000000000000 ) ) ;
#167 = CALENDAR_DATE ( 2019, 7, 1 ) ;
#168 = LINE ( 'NONE', #16, #120 ) ;
#169 = ORIENTED_EDGE ( 'NONE', *, *, #150, .T. ) ;
#170 = APPROVAL_STATUS ( 'not_yet_approved' ) ;
#171 =( GEOMETRIC_REPRESENTATION_CONTEXT ( 3 ) GLOBAL_UNCERTAINTY_ASSIGNED_CONTEXT ( ( #20 ) ) GLOBAL_UNIT_ASSIGNED_CONTEXT ( ( #23, #108, #154 ) ) REPRESENTATION_CONTEXT ( 'NONE', 'WORKASPACE' ) );
#172 = DIRECTION ( 'NONE',  ( -1.000000000000000000, 0.0000000000000000000, 0.0000000000000000000 ) ) ;
#173 = ADVANCED_FACE ( 'NONE', ( #127 ), #45, .T. ) ;
#174 = CALENDAR_DATE ( 2019, 7, 1 ) ;
#175 = VECTOR ( 'NONE', #37, 1000.000000000000000 ) ;
ENDSEC;
END-ISO-10303-21;
