ISO-10303-21;
HEADER;
FILE_DESCRIPTION (( 'STEP AP214' ),
    '1' );
FILE_NAME ('4890-E0W.STEP',
    '2009-12-21T17:10:18',
    ( ' ' ),
    ( ' ' ),
    'SwSTEP 2.0',
    'SolidWorks 2009',
    '' );
FILE_SCHEMA (( 'AUTOMOTIVE_DESIGN' ));
ENDSEC;

DATA;
#1 = DIRECTION ( 'NONE',  ( 1.000000000000000000, 0.0000000000000000000, 0.0000000000000000000 ) ) ;
#2 = CIRCLE ( 'NONE', #4, 12.70000000000000100 ) ;
#3 = CARTESIAN_POINT ( 'NONE',  ( 0.0000000000000000000, 0.0000000000000000000, 1.506453556687039800 ) ) ;
#4 = AXIS2_PLACEMENT_3D ( 'NONE', #3, #5, #1 ) ;
#5 = DIRECTION ( 'NONE',  ( -0.0000000000000000000, -0.0000000000000000000, 1.000000000000000000 ) ) ;
#6 = SURFACE_SIDE_STYLE ('',( #21 ) ) ;
#7 = DIRECTION ( 'NONE',  ( -0.0000000000000000000, -0.0000000000000000000, 1.000000000000000000 ) ) ;
#8 = CARTESIAN_POINT ( 'NONE',  ( 12.70000000000000100, 0.0000000000000000000, 9.721285611123921200 ) ) ;
#9 = SURFACE_STYLE_USAGE ( .BOTH. , #6 ) ;
#10 = VECTOR ( 'NONE', #7, 1000.000000000000000 ) ;
#11 = LINE ( 'NONE', #8, #10 ) ;
#12 =( LENGTH_UNIT ( ) NAMED_UNIT ( * ) SI_UNIT ( .MILLI., .METRE. ) );
#13 = PRESENTATION_STYLE_ASSIGNMENT (( #9 ) ) ;
#14 = PRESENTATION_LAYER_ASSIGNMENT (  '', '', ( #15 ) ) ;
#15 = STYLED_ITEM ( 'NONE', ( #13 ), #180 ) ;
#16 = MECHANICAL_DESIGN_GEOMETRIC_PRESENTATION_REPRESENTATION (  '', ( #15 ), #28 ) ;
#17 = DIRECTION ( 'NONE',  ( -0.0000000000000000000, -0.0000000000000000000, 1.000000000000000000 ) ) ;
#18 =( NAMED_UNIT ( * ) SI_UNIT ( $, .STERADIAN. ) SOLID_ANGLE_UNIT ( ) );
#19 =( NAMED_UNIT ( * ) PLANE_ANGLE_UNIT ( ) SI_UNIT ( $, .RADIAN. ) );
#20 = FILL_AREA_STYLE_COLOUR ( '', #23 ) ;
#21 = SURFACE_STYLE_FILL_AREA ( #22 ) ;
#22 = FILL_AREA_STYLE ('',( #20 ) ) ;
#23 = COLOUR_RGB ( '',0.9568627450980391500, 0.9490196078431372100, 0.9607843137254902200 ) ;
#24 = FACE_OUTER_BOUND ( 'NONE', #174, .T. ) ;
#25 = AXIS2_PLACEMENT_3D ( 'NONE', #26, #17, #29 ) ;
#26 = CARTESIAN_POINT ( 'NONE',  ( 0.0000000000000000000, 0.0000000000000000000, 9.721285611123921200 ) ) ;
#27 = UNCERTAINTY_MEASURE_WITH_UNIT (LENGTH_MEASURE( 1.000000000000000100E-005 ), #12, 'distance_accuracy_value', 'NONE');
#28 =( GEOMETRIC_REPRESENTATION_CONTEXT ( 3 ) GLOBAL_UNCERTAINTY_ASSIGNED_CONTEXT ( ( #27 ) ) GLOBAL_UNIT_ASSIGNED_CONTEXT ( ( #12, #19, #18 ) ) REPRESENTATION_CONTEXT ( 'NONE', 'WORKASPACE' ) );
#29 = DIRECTION ( 'NONE',  ( 1.000000000000000000, 0.0000000000000000000, 0.0000000000000000000 ) ) ;
#30 = CYLINDRICAL_SURFACE ( 'NONE', #25, 12.70000000000000100 ) ;
#31 = CARTESIAN_POINT ( 'NONE',  ( -12.70000000000000100, 1.555250069354419300E-015, -2.316181856282868000 ) ) ;
#32 = AXIS2_PLACEMENT_3D ( 'NONE', #58, #80, #79 ) ;
#33 = FILL_AREA_STYLE ('',( #61 ) ) ;
#34 = SURFACE_SIDE_STYLE ('',( #56 ) ) ;
#35 = VECTOR ( 'NONE', #74, 1000.000000000000000 ) ;
#36 = CARTESIAN_POINT ( 'NONE',  ( -12.70000000000000100, 1.555250069354419300E-015, 9.721285611123921200 ) ) ;
#37 = LINE ( 'NONE', #36, #35 ) ;
#38 = STYLED_ITEM ( 'NONE', ( #64 ), #184 ) ;
#39 = ADVANCED_BREP_SHAPE_REPRESENTATION ( '4890-E0W', ( #168, #47 ), #43 ) ;
#40 = FACE_OUTER_BOUND ( 'NONE', #182, .T. ) ;
#41 = CARTESIAN_POINT ( 'NONE',  ( -12.70000000000000100, 1.555250069354419300E-015, 1.506453556687039800 ) ) ;
#42 = CARTESIAN_POINT ( 'NONE',  ( 0.0000000000000000000, 0.0000000000000000000, -97.68381814371714700 ) ) ;
#43 =( GEOMETRIC_REPRESENTATION_CONTEXT ( 3 ) GLOBAL_UNCERTAINTY_ASSIGNED_CONTEXT ( ( #59 ) ) GLOBAL_UNIT_ASSIGNED_CONTEXT ( ( #72, #45, #60 ) ) REPRESENTATION_CONTEXT ( 'NONE', 'WORKASPACE' ) );
#44 = AXIS2_PLACEMENT_3D ( 'NONE', #42, #81, #71 ) ;
#45 =( NAMED_UNIT ( * ) PLANE_ANGLE_UNIT ( ) SI_UNIT ( $, .RADIAN. ) );
#46 = MECHANICAL_DESIGN_GEOMETRIC_PRESENTATION_REPRESENTATION (  '', ( #38 ), #68 ) ;
#47 = AXIS2_PLACEMENT_3D ( 'NONE', #73, #90, #89 ) ;
#48 = PRESENTATION_LAYER_ASSIGNMENT (  '', '', ( #49 ) ) ;
#49 = STYLED_ITEM ( 'NONE', ( #50 ), #39 ) ;
#50 = PRESENTATION_STYLE_ASSIGNMENT (( #51 ) ) ;
#51 = SURFACE_STYLE_USAGE ( .BOTH. , #52 ) ;
#52 = SURFACE_SIDE_STYLE ('',( #53 ) ) ;
#53 = SURFACE_STYLE_FILL_AREA ( #65 ) ;
#54 =( NAMED_UNIT ( * ) SI_UNIT ( $, .STERADIAN. ) SOLID_ANGLE_UNIT ( ) );
#55 = SPHERICAL_SURFACE ( 'NONE', #44, 100.0000000000000000 ) ;
#56 = SURFACE_STYLE_FILL_AREA ( #33 ) ;
#57 = CIRCLE ( 'NONE', #32, 12.70000000000000100 ) ;
#58 = CARTESIAN_POINT ( 'NONE',  ( 0.0000000000000000000, 0.0000000000000000000, 1.506453556687039800 ) ) ;
#59 = UNCERTAINTY_MEASURE_WITH_UNIT (LENGTH_MEASURE( 1.000000000000000100E-005 ), #72, 'distance_accuracy_value', 'NONE');
#60 =( NAMED_UNIT ( * ) SI_UNIT ( $, .STERADIAN. ) SOLID_ANGLE_UNIT ( ) );
#61 = FILL_AREA_STYLE_COLOUR ( '', #82 ) ;
#62 =( NAMED_UNIT ( * ) PLANE_ANGLE_UNIT ( ) SI_UNIT ( $, .RADIAN. ) );
#63 =( NAMED_UNIT ( * ) PLANE_ANGLE_UNIT ( ) SI_UNIT ( $, .RADIAN. ) );
#64 = PRESENTATION_STYLE_ASSIGNMENT (( #92 ) ) ;
#65 = FILL_AREA_STYLE ('',( #66 ) ) ;
#66 = FILL_AREA_STYLE_COLOUR ( '', #67 ) ;
#67 = COLOUR_RGB ( '',0.7960784313725489700, 0.8235294117647058400, 0.9372549019607843100 ) ;
#68 =( GEOMETRIC_REPRESENTATION_CONTEXT ( 3 ) GLOBAL_UNCERTAINTY_ASSIGNED_CONTEXT ( ( #84 ) ) GLOBAL_UNIT_ASSIGNED_CONTEXT ( ( #85, #62, #54 ) ) REPRESENTATION_CONTEXT ( 'NONE', 'WORKASPACE' ) );
#69 = UNCERTAINTY_MEASURE_WITH_UNIT (LENGTH_MEASURE( 1.000000000000000100E-005 ), #86, 'distance_accuracy_value', 'NONE');
#70 =( NAMED_UNIT ( * ) SI_UNIT ( $, .STERADIAN. ) SOLID_ANGLE_UNIT ( ) );
#71 = DIRECTION ( 'NONE',  ( 0.0000000000000000000, 1.000000000000000000, 0.0000000000000000000 ) ) ;
#72 =( LENGTH_UNIT ( ) NAMED_UNIT ( * ) SI_UNIT ( .MILLI., .METRE. ) );
#73 = CARTESIAN_POINT ( 'NONE',  ( 0.0000000000000000000, 0.0000000000000000000, 0.0000000000000000000 ) ) ;
#74 = DIRECTION ( 'NONE',  ( -0.0000000000000000000, -0.0000000000000000000, 1.000000000000000000 ) ) ;
#75 = DIRECTION ( 'NONE',  ( -0.0000000000000000000, -0.0000000000000000000, 1.000000000000000000 ) ) ;
#76 = CARTESIAN_POINT ( 'NONE',  ( 0.0000000000000000000, 0.0000000000000000000, -2.316181856282868000 ) ) ;
#77 = AXIS2_PLACEMENT_3D ( 'NONE', #76, #75, #88 ) ;
#78 = CIRCLE ( 'NONE', #77, 12.70000000000000100 ) ;
#79 = DIRECTION ( 'NONE',  ( 1.000000000000000000, 0.0000000000000000000, 0.0000000000000000000 ) ) ;
#80 = DIRECTION ( 'NONE',  ( -0.0000000000000000000, -0.0000000000000000000, 1.000000000000000000 ) ) ;
#81 = DIRECTION ( 'NONE',  ( -1.000000000000000000, 0.0000000000000000000, 0.0000000000000000000 ) ) ;
#82 = COLOUR_RGB ( '',0.9568627450980391500, 0.9490196078431372100, 0.9607843137254902200 ) ;
#83 = PRESENTATION_LAYER_ASSIGNMENT (  '', '', ( #38 ) ) ;
#84 = UNCERTAINTY_MEASURE_WITH_UNIT (LENGTH_MEASURE( 1.000000000000000100E-005 ), #85, 'distance_accuracy_value', 'NONE');
#85 =( LENGTH_UNIT ( ) NAMED_UNIT ( * ) SI_UNIT ( .MILLI., .METRE. ) );
#86 =( LENGTH_UNIT ( ) NAMED_UNIT ( * ) SI_UNIT ( .MILLI., .METRE. ) );
#87 = MECHANICAL_DESIGN_GEOMETRIC_PRESENTATION_REPRESENTATION (  '', ( #49 ), #91 ) ;
#88 = DIRECTION ( 'NONE',  ( 1.000000000000000000, 0.0000000000000000000, 0.0000000000000000000 ) ) ;
#89 = DIRECTION ( 'NONE',  ( 1.000000000000000000, 0.0000000000000000000, 0.0000000000000000000 ) ) ;
#90 = DIRECTION ( 'NONE',  ( 0.0000000000000000000, 0.0000000000000000000, 1.000000000000000000 ) ) ;
#91 =( GEOMETRIC_REPRESENTATION_CONTEXT ( 3 ) GLOBAL_UNCERTAINTY_ASSIGNED_CONTEXT ( ( #69 ) ) GLOBAL_UNIT_ASSIGNED_CONTEXT ( ( #86, #63, #70 ) ) REPRESENTATION_CONTEXT ( 'NONE', 'WORKASPACE' ) );
#92 = SURFACE_STYLE_USAGE ( .BOTH. , #34 ) ;
#93 = CARTESIAN_POINT ( 'NONE',  ( 12.70000000000000100, 0.0000000000000000000, 1.506453556687039800 ) ) ;
#94 = APPLICATION_PROTOCOL_DEFINITION ( 'draft international standard', 'automotive_design', 1998, #95 ) ;
#95 = APPLICATION_CONTEXT ( 'automotive_design' ) ;
#96 = PRODUCT_DEFINITION ( 'UNKNOWN', '', #101, #98 ) ;
#97 = PRODUCT_RELATED_PRODUCT_CATEGORY ( 'part', '', ( #99 ) ) ;
#98 = PRODUCT_DEFINITION_CONTEXT ( 'detailed design', #95, 'design' ) ;
#99 = PRODUCT ( '4890-E0W', '4890-E0W', '', ( #102 ) ) ;
#100 = APPLICATION_CONTEXT ( 'automotive_design' ) ;
#101 = PRODUCT_DEFINITION_FORMATION_WITH_SPECIFIED_SOURCE ( 'ANY', '', #99, .NOT_KNOWN. ) ;
#102 = PRODUCT_CONTEXT ( 'NONE', #100, 'mechanical' ) ;
#103 = APPLICATION_PROTOCOL_DEFINITION ( 'draft international standard', 'automotive_design', 1998, #100 ) ;
#104 = PRODUCT_DEFINITION_SHAPE ( 'NONE', 'NONE',  #96 ) ;
#105 = SHAPE_DEFINITION_REPRESENTATION ( #104, #39 ) ;
#106 = ORIENTED_EDGE ( 'NONE', *, *, #131, .T. ) ;
#107 = ADVANCED_FACE ( 'NONE', ( #214 ), #242, .T. ) ;
#108 = VERTEX_POINT ( 'NONE', #227 ) ;
#109 = ORIENTED_EDGE ( 'NONE', *, *, #119, .T. ) ;
#110 = ORIENTED_EDGE ( 'NONE', *, *, #193, .F. ) ;
#111 = ADVANCED_FACE ( 'NONE', ( #236 ), #238, .T. ) ;
#112 = CLOSED_SHELL ( 'NONE', ( #169, #180, #184, #107, #111, #160 ) ) ;
#113 = ORIENTED_EDGE ( 'NONE', *, *, #131, .F. ) ;
#114 = ORIENTED_EDGE ( 'NONE', *, *, #122, .T. ) ;
#115 = EDGE_LOOP ( 'NONE', ( #126, #106, #132, #130 ) ) ;
#116 = ORIENTED_EDGE ( 'NONE', *, *, #153, .T. ) ;
#117 = ORIENTED_EDGE ( 'NONE', *, *, #179, .T. ) ;
#118 = VERTEX_POINT ( 'NONE', #208 ) ;
#119 = EDGE_CURVE ( 'NONE', #191, #118, #217, .T. ) ;
#120 = ORIENTED_EDGE ( 'NONE', *, *, #175, .F. ) ;
#121 = ORIENTED_EDGE ( 'NONE', *, *, #124, .F. ) ;
#122 = EDGE_CURVE ( 'NONE', #118, #128, #251, .T. ) ;
#123 = ORIENTED_EDGE ( 'NONE', *, *, #146, .T. ) ;
#124 = EDGE_CURVE ( 'NONE', #108, #128, #267, .T. ) ;
#125 = ORIENTED_EDGE ( 'NONE', *, *, #146, .F. ) ;
#126 = ORIENTED_EDGE ( 'NONE', *, *, #122, .F. ) ;
#127 = EDGE_LOOP ( 'NONE', ( #137, #125, #120, #116 ) ) ;
#128 = VERTEX_POINT ( 'NONE', #284 ) ;
#129 = ORIENTED_EDGE ( 'NONE', *, *, #136, .T. ) ;
#130 = ORIENTED_EDGE ( 'NONE', *, *, #124, .T. ) ;
#131 = EDGE_CURVE ( 'NONE', #118, #187, #289, .T. ) ;
#132 = ORIENTED_EDGE ( 'NONE', *, *, #178, .T. ) ;
#133 = SURFACE_STYLE_USAGE ( .BOTH. , #140 ) ;
#134 = PRESENTATION_LAYER_ASSIGNMENT (  '', '', ( #164 ) ) ;
#135 = DIRECTION ( 'NONE',  ( 0.0000000000000000000, 1.000000000000000000, 0.0000000000000000000 ) ) ;
#136 = EDGE_CURVE ( 'NONE', #141, #152, #254, .T. ) ;
#137 = ORIENTED_EDGE ( 'NONE', *, *, #157, .F. ) ;
#138 = ORIENTED_EDGE ( 'NONE', *, *, #136, .F. ) ;
#139 = FACE_OUTER_BOUND ( 'NONE', #163, .T. ) ;
#140 = SURFACE_SIDE_STYLE ('',( #143 ) ) ;
#141 = VERTEX_POINT ( 'NONE', #293 ) ;
#142 = VERTEX_POINT ( 'NONE', #292 ) ;
#143 = SURFACE_STYLE_FILL_AREA ( #148 ) ;
#144 = ORIENTED_EDGE ( 'NONE', *, *, #153, .F. ) ;
#145 = PRESENTATION_STYLE_ASSIGNMENT (( #133 ) ) ;
#146 = EDGE_CURVE ( 'NONE', #176, #141, #250, .T. ) ;
#147 = VERTEX_POINT ( 'NONE', #283 ) ;
#148 = FILL_AREA_STYLE ('',( #162 ) ) ;
#149 =( NAMED_UNIT ( * ) SI_UNIT ( $, .STERADIAN. ) SOLID_ANGLE_UNIT ( ) );
#150 = ORIENTED_EDGE ( 'NONE', *, *, #119, .F. ) ;
#151 = DIRECTION ( 'NONE',  ( 1.000000000000000000, 0.0000000000000000000, 0.0000000000000000000 ) ) ;
#152 = VERTEX_POINT ( 'NONE', #282 ) ;
#153 = EDGE_CURVE ( 'NONE', #147, #142, #247, .T. ) ;
#154 = COLOUR_RGB ( '',0.9568627450980391500, 0.9490196078431372100, 0.9607843137254902200 ) ;
#155 =( LENGTH_UNIT ( ) NAMED_UNIT ( * ) SI_UNIT ( .MILLI., .METRE. ) );
#156 = EDGE_LOOP ( 'NONE', ( #110, #123, #129, #117, #113, #150 ) ) ;
#157 = EDGE_CURVE ( 'NONE', #141, #142, #311, .T. ) ;
#158 =( NAMED_UNIT ( * ) PLANE_ANGLE_UNIT ( ) SI_UNIT ( $, .RADIAN. ) );
#159 = PRESENTATION_LAYER_ASSIGNMENT (  '', '', ( #302 ) ) ;
#160 = ADVANCED_FACE ( 'NONE', ( #312 ), #274, .F. ) ;
#161 = ORIENTED_EDGE ( 'NONE', *, *, #157, .T. ) ;
#162 = FILL_AREA_STYLE_COLOUR ( '', #154 ) ;
#163 = EDGE_LOOP ( 'NONE', ( #138, #161, #144, #177 ) ) ;
#164 = STYLED_ITEM ( 'NONE', ( #145 ), #169 ) ;
#165 = MECHANICAL_DESIGN_GEOMETRIC_PRESENTATION_REPRESENTATION (  '', ( #302 ), #218 ) ;
#166 =( NAMED_UNIT ( * ) PLANE_ANGLE_UNIT ( ) SI_UNIT ( $, .RADIAN. ) );
#167 =( NAMED_UNIT ( * ) SI_UNIT ( $, .STERADIAN. ) SOLID_ANGLE_UNIT ( ) );
#168 = MANIFOLD_SOLID_BREP ( 'NONE', #112 ) ;
#169 = ADVANCED_FACE ( 'NONE', ( #139 ), #317, .F. ) ;
#170 = MECHANICAL_DESIGN_GEOMETRIC_PRESENTATION_REPRESENTATION (  '', ( #164 ), #314 ) ;
#171 =( LENGTH_UNIT ( ) NAMED_UNIT ( * ) SI_UNIT ( .MILLI., .METRE. ) );
#172 = UNCERTAINTY_MEASURE_WITH_UNIT (LENGTH_MEASURE( 1.000000000000000100E-005 ), #155, 'distance_accuracy_value', 'NONE');
#173 = ORIENTED_EDGE ( 'NONE', *, *, #190, .T. ) ;
#174 = EDGE_LOOP ( 'NONE', ( #173, #181, #192, #185, #189, #183 ) ) ;
#175 = EDGE_CURVE ( 'NONE', #147, #176, #320, .T. ) ;
#176 = VERTEX_POINT ( 'NONE', #31 ) ;
#177 = ORIENTED_EDGE ( 'NONE', *, *, #190, .F. ) ;
#178 = EDGE_CURVE ( 'NONE', #187, #108, #2, .T. ) ;
#179 = EDGE_CURVE ( 'NONE', #152, #187, #11, .T. ) ;
#180 = ADVANCED_FACE ( 'NONE', ( #24 ), #30, .T. ) ;
#181 = ORIENTED_EDGE ( 'NONE', *, *, #175, .T. ) ;
#182 = EDGE_LOOP ( 'NONE', ( #188, #109, #114, #121 ) ) ;
#183 = ORIENTED_EDGE ( 'NONE', *, *, #179, .F. ) ;
#184 = ADVANCED_FACE ( 'NONE', ( #40 ), #55, .T. ) ;
#185 = ORIENTED_EDGE ( 'NONE', *, *, #186, .F. ) ;
#186 = EDGE_CURVE ( 'NONE', #108, #191, #57, .T. ) ;
#187 = VERTEX_POINT ( 'NONE', #93 ) ;
#188 = ORIENTED_EDGE ( 'NONE', *, *, #186, .T. ) ;
#189 = ORIENTED_EDGE ( 'NONE', *, *, #178, .F. ) ;
#190 = EDGE_CURVE ( 'NONE', #152, #147, #78, .T. ) ;
#191 = VERTEX_POINT ( 'NONE', #41 ) ;
#192 = ORIENTED_EDGE ( 'NONE', *, *, #193, .T. ) ;
#193 = EDGE_CURVE ( 'NONE', #176, #191, #37, .T. ) ;
#194 = MECHANICAL_DESIGN_GEOMETRIC_PRESENTATION_REPRESENTATION (  '', ( #205 ), #228 ) ;
#195 = STYLED_ITEM ( 'NONE', ( #196 ), #111 ) ;
#196 = PRESENTATION_STYLE_ASSIGNMENT (( #197 ) ) ;
#197 = SURFACE_STYLE_USAGE ( .BOTH. , #198 ) ;
#198 = SURFACE_SIDE_STYLE ('',( #199 ) ) ;
#199 = SURFACE_STYLE_FILL_AREA ( #233 ) ;
#200 = SURFACE_SIDE_STYLE ('',( #203 ) ) ;
#201 =( NAMED_UNIT ( * ) SI_UNIT ( $, .STERADIAN. ) SOLID_ANGLE_UNIT ( ) );
#202 = FILL_AREA_STYLE ('',( #231 ) ) ;
#203 = SURFACE_STYLE_FILL_AREA ( #202 ) ;
#204 =( LENGTH_UNIT ( ) NAMED_UNIT ( * ) SI_UNIT ( .MILLI., .METRE. ) );
#205 = STYLED_ITEM ( 'NONE', ( #232 ), #107 ) ;
#206 = UNCERTAINTY_MEASURE_WITH_UNIT (LENGTH_MEASURE( 1.000000000000000100E-005 ), #211, 'distance_accuracy_value', 'NONE');
#207 =( NAMED_UNIT ( * ) SI_UNIT ( $, .STERADIAN. ) SOLID_ANGLE_UNIT ( ) );
#208 = CARTESIAN_POINT ( 'NONE',  ( -1.555250069354418500E-015, -12.69999999999999200, 1.506453556687037200 ) ) ;
#209 = DIRECTION ( 'NONE',  ( 1.000000000000000000, 0.0000000000000000000, 0.0000000000000000000 ) ) ;
#210 =( NAMED_UNIT ( * ) PLANE_ANGLE_UNIT ( ) SI_UNIT ( $, .RADIAN. ) );
#211 =( LENGTH_UNIT ( ) NAMED_UNIT ( * ) SI_UNIT ( .MILLI., .METRE. ) );
#212 = MECHANICAL_DESIGN_GEOMETRIC_PRESENTATION_REPRESENTATION (  '', ( #195 ), #239 ) ;
#213 = PRESENTATION_LAYER_ASSIGNMENT (  '', '', ( #195 ) ) ;
#214 = FACE_OUTER_BOUND ( 'NONE', #115, .T. ) ;
#215 = COLOUR_RGB ( '',0.9568627450980391500, 0.9490196078431372100, 0.9607843137254902200 ) ;
#216 = SURFACE_STYLE_USAGE ( .BOTH. , #200 ) ;
#217 = CIRCLE ( 'NONE', #222, 12.70000000000000100 ) ;
#218 =( GEOMETRIC_REPRESENTATION_CONTEXT ( 3 ) GLOBAL_UNCERTAINTY_ASSIGNED_CONTEXT ( ( #172 ) ) GLOBAL_UNIT_ASSIGNED_CONTEXT ( ( #155, #158, #149 ) ) REPRESENTATION_CONTEXT ( 'NONE', 'WORKASPACE' ) );
#219 = DIRECTION ( 'NONE',  ( 1.000000000000000000, 0.0000000000000000000, 0.0000000000000000000 ) ) ;
#220 = DIRECTION ( 'NONE',  ( -0.0000000000000000000, -0.0000000000000000000, 1.000000000000000000 ) ) ;
#221 = CARTESIAN_POINT ( 'NONE',  ( 0.0000000000000000000, 0.0000000000000000000, 1.506453556687039800 ) ) ;
#222 = AXIS2_PLACEMENT_3D ( 'NONE', #221, #220, #219 ) ;
#223 = DIRECTION ( 'NONE',  ( 0.0000000000000000000, 1.000000000000000000, 0.0000000000000000000 ) ) ;
#224 = DIRECTION ( 'NONE',  ( -1.000000000000000000, 0.0000000000000000000, 0.0000000000000000000 ) ) ;
#225 = CARTESIAN_POINT ( 'NONE',  ( 0.0000000000000000000, 0.0000000000000000000, -97.68381814371714700 ) ) ;
#226 = UNCERTAINTY_MEASURE_WITH_UNIT (LENGTH_MEASURE( 1.000000000000000100E-005 ), #204, 'distance_accuracy_value', 'NONE');
#227 = CARTESIAN_POINT ( 'NONE',  ( 0.0000000000000000000, 12.69999999999999200, 1.506453556687037200 ) ) ;
#228 =( GEOMETRIC_REPRESENTATION_CONTEXT ( 3 ) GLOBAL_UNCERTAINTY_ASSIGNED_CONTEXT ( ( #226 ) ) GLOBAL_UNIT_ASSIGNED_CONTEXT ( ( #204, #210, #201 ) ) REPRESENTATION_CONTEXT ( 'NONE', 'WORKASPACE' ) );
#229 = DIRECTION ( 'NONE',  ( -0.0000000000000000000, -0.0000000000000000000, 1.000000000000000000 ) ) ;
#230 = CARTESIAN_POINT ( 'NONE',  ( 0.0000000000000000000, 0.0000000000000000000, 9.721285611123921200 ) ) ;
#231 = FILL_AREA_STYLE_COLOUR ( '', #215 ) ;
#232 = PRESENTATION_STYLE_ASSIGNMENT (( #216 ) ) ;
#233 = FILL_AREA_STYLE ('',( #234 ) ) ;
#234 = FILL_AREA_STYLE_COLOUR ( '', #235 ) ;
#235 = COLOUR_RGB ( '',0.9568627450980391500, 0.9490196078431372100, 0.9607843137254902200 ) ;
#236 = FACE_OUTER_BOUND ( 'NONE', #156, .T. ) ;
#237 = AXIS2_PLACEMENT_3D ( 'NONE', #230, #229, #209 ) ;
#238 = CYLINDRICAL_SURFACE ( 'NONE', #237, 12.70000000000000100 ) ;
#239 =( GEOMETRIC_REPRESENTATION_CONTEXT ( 3 ) GLOBAL_UNCERTAINTY_ASSIGNED_CONTEXT ( ( #206 ) ) GLOBAL_UNIT_ASSIGNED_CONTEXT ( ( #211, #240, #207 ) ) REPRESENTATION_CONTEXT ( 'NONE', 'WORKASPACE' ) );
#240 =( NAMED_UNIT ( * ) PLANE_ANGLE_UNIT ( ) SI_UNIT ( $, .RADIAN. ) );
#241 = AXIS2_PLACEMENT_3D ( 'NONE', #225, #224, #223 ) ;
#242 = SPHERICAL_SURFACE ( 'NONE', #241, 100.0000000000000000 ) ;
#243 = PRESENTATION_LAYER_ASSIGNMENT (  '', '', ( #205 ) ) ;
#244 =( NAMED_UNIT ( * ) SI_UNIT ( $, .STERADIAN. ) SOLID_ANGLE_UNIT ( ) );
#245 =( NAMED_UNIT ( * ) PLANE_ANGLE_UNIT ( ) SI_UNIT ( $, .RADIAN. ) );
#246 = AXIS2_PLACEMENT_3D ( 'NONE', #260, #253, #294 ) ;
#247 = CIRCLE ( 'NONE', #270, 50.21999999999999900 ) ;
#248 = DIRECTION ( 'NONE',  ( -1.000000000000000000, 1.224606353822377300E-016, 0.0000000000000000000 ) ) ;
#249 = CARTESIAN_POINT ( 'NONE',  ( 0.0000000000000000000, 0.0000000000000000000, -50.90381814371713900 ) ) ;
#250 = CIRCLE ( 'NONE', #278, 12.70000000000000100 ) ;
#251 = CIRCLE ( 'NONE', #290, 100.0000000000000000 ) ;
#252 = DIRECTION ( 'NONE',  ( 1.000000000000000000, 0.0000000000000000000, 0.0000000000000000000 ) ) ;
#253 = DIRECTION ( 'NONE',  ( 1.000000000000000000, 0.0000000000000000000, 0.0000000000000000000 ) ) ;
#254 = CIRCLE ( 'NONE', #288, 12.70000000000000100 ) ;
#255 = SURFACE_SIDE_STYLE ('',( #256 ) ) ;
#256 = SURFACE_STYLE_FILL_AREA ( #257 ) ;
#257 = FILL_AREA_STYLE ('',( #258 ) ) ;
#258 = FILL_AREA_STYLE_COLOUR ( '', #259 ) ;
#259 = COLOUR_RGB ( '',0.9568627450980391500, 0.9490196078431372100, 0.9607843137254902200 ) ;
#260 = CARTESIAN_POINT ( 'NONE',  ( 0.0000000000000000000, 0.0000000000000000000, -97.68381814371714700 ) ) ;
#261 = DIRECTION ( 'NONE',  ( -0.0000000000000000000, -0.0000000000000000000, 1.000000000000000000 ) ) ;
#262 =( GEOMETRIC_REPRESENTATION_CONTEXT ( 3 ) GLOBAL_UNCERTAINTY_ASSIGNED_CONTEXT ( ( #280 ) ) GLOBAL_UNIT_ASSIGNED_CONTEXT ( ( #279, #245, #244 ) ) REPRESENTATION_CONTEXT ( 'NONE', 'WORKASPACE' ) );
#263 = DIRECTION ( 'NONE',  ( -1.224606353822377300E-016, -1.000000000000000000, 0.0000000000000000000 ) ) ;
#264 = DIRECTION ( 'NONE',  ( -1.000000000000000000, 1.224606353822377300E-016, 0.0000000000000000000 ) ) ;
#265 = CARTESIAN_POINT ( 'NONE',  ( 0.0000000000000000000, 0.0000000000000000000, -50.90381814371713900 ) ) ;
#266 = AXIS2_PLACEMENT_3D ( 'NONE', #265, #264, #263 ) ;
#267 = CIRCLE ( 'NONE', #246, 100.0000000000000100 ) ;
#268 = DIRECTION ( 'NONE',  ( 0.0000000000000000000, 0.0000000000000000000, -1.000000000000000000 ) ) ;
#269 = DIRECTION ( 'NONE',  ( 1.000000000000000000, -0.0000000000000000000, 0.0000000000000000000 ) ) ;
#270 = AXIS2_PLACEMENT_3D ( 'NONE', #249, #269, #268 ) ;
#271 = COLOUR_RGB ( '',0.7960784313725489700, 0.8235294117647058400, 0.9372549019607843100 ) ;
#272 = FILL_AREA_STYLE_COLOUR ( '', #271 ) ;
#273 = CARTESIAN_POINT ( 'NONE',  ( 0.0000000000000000000, 0.0000000000000000000, -50.90381814371713900 ) ) ;
#274 = SPHERICAL_SURFACE ( 'NONE', #310, 50.21999999999999900 ) ;
#275 = DIRECTION ( 'NONE',  ( 1.000000000000000000, 0.0000000000000000000, 0.0000000000000000000 ) ) ;
#276 = DIRECTION ( 'NONE',  ( -0.0000000000000000000, -0.0000000000000000000, 1.000000000000000000 ) ) ;
#277 = CARTESIAN_POINT ( 'NONE',  ( 0.0000000000000000000, 0.0000000000000000000, -2.316181856282868000 ) ) ;
#278 = AXIS2_PLACEMENT_3D ( 'NONE', #277, #276, #275 ) ;
#279 =( LENGTH_UNIT ( ) NAMED_UNIT ( * ) SI_UNIT ( .MILLI., .METRE. ) );
#280 = UNCERTAINTY_MEASURE_WITH_UNIT (LENGTH_MEASURE( 1.000000000000000100E-005 ), #279, 'distance_accuracy_value', 'NONE');
#281 = DIRECTION ( 'NONE',  ( -1.224606353822377300E-016, -1.000000000000000000, 0.0000000000000000000 ) ) ;
#282 = CARTESIAN_POINT ( 'NONE',  ( 12.70000000000000100, 0.0000000000000000000, -2.316181856282868000 ) ) ;
#283 = CARTESIAN_POINT ( 'NONE',  ( 0.0000000000000000000, 12.70000000000000100, -2.316181856282862700 ) ) ;
#284 = CARTESIAN_POINT ( 'NONE',  ( 0.0000000000000000000, 6.123031769111886300E-015, 2.316181856282864400 ) ) ;
#285 = DIRECTION ( 'NONE',  ( 1.000000000000000000, 0.0000000000000000000, 0.0000000000000000000 ) ) ;
#286 = DIRECTION ( 'NONE',  ( -0.0000000000000000000, -0.0000000000000000000, 1.000000000000000000 ) ) ;
#287 = CARTESIAN_POINT ( 'NONE',  ( 0.0000000000000000000, 0.0000000000000000000, -2.316181856282868000 ) ) ;
#288 = AXIS2_PLACEMENT_3D ( 'NONE', #287, #286, #285 ) ;
#289 = CIRCLE ( 'NONE', #291, 12.70000000000000100 ) ;
#290 = AXIS2_PLACEMENT_3D ( 'NONE', #295, #248, #281 ) ;
#291 = AXIS2_PLACEMENT_3D ( 'NONE', #301, #261, #252 ) ;
#292 = CARTESIAN_POINT ( 'NONE',  ( 0.0000000000000000000, 3.074986554447989200E-015, -0.6838181437171381200 ) ) ;
#293 = CARTESIAN_POINT ( 'NONE',  ( -1.555250069354419300E-015, -12.70000000000000100, -2.316181856282862700 ) ) ;
#294 = DIRECTION ( 'NONE',  ( 0.0000000000000000000, 0.0000000000000000000, -1.000000000000000000 ) ) ;
#295 = CARTESIAN_POINT ( 'NONE',  ( 0.0000000000000000000, 0.0000000000000000000, -97.68381814371714700 ) ) ;
#296 = MECHANICAL_DESIGN_GEOMETRIC_PRESENTATION_REPRESENTATION (  '', ( #298 ), #262 ) ;
#297 = PRESENTATION_LAYER_ASSIGNMENT (  '', '', ( #298 ) ) ;
#298 = STYLED_ITEM ( 'NONE', ( #299 ), #160 ) ;
#299 = PRESENTATION_STYLE_ASSIGNMENT (( #300 ) ) ;
#300 = SURFACE_STYLE_USAGE ( .BOTH. , #255 ) ;
#301 = CARTESIAN_POINT ( 'NONE',  ( 0.0000000000000000000, 0.0000000000000000000, 1.506453556687039800 ) ) ;
#302 = STYLED_ITEM ( 'NONE', ( #303 ), #168 ) ;
#303 = PRESENTATION_STYLE_ASSIGNMENT (( #304 ) ) ;
#304 = SURFACE_STYLE_USAGE ( .BOTH. , #305 ) ;
#305 = SURFACE_SIDE_STYLE ('',( #306 ) ) ;
#306 = SURFACE_STYLE_FILL_AREA ( #307 ) ;
#307 = FILL_AREA_STYLE ('',( #272 ) ) ;
#308 = DIRECTION ( 'NONE',  ( 0.0000000000000000000, 1.000000000000000000, 0.0000000000000000000 ) ) ;
#309 = DIRECTION ( 'NONE',  ( -1.000000000000000000, 0.0000000000000000000, 0.0000000000000000000 ) ) ;
#310 = AXIS2_PLACEMENT_3D ( 'NONE', #273, #309, #308 ) ;
#311 = CIRCLE ( 'NONE', #266, 50.21999999999999900 ) ;
#312 = FACE_OUTER_BOUND ( 'NONE', #127, .T. ) ;
#313 = UNCERTAINTY_MEASURE_WITH_UNIT (LENGTH_MEASURE( 1.000000000000000100E-005 ), #171, 'distance_accuracy_value', 'NONE');
#314 =( GEOMETRIC_REPRESENTATION_CONTEXT ( 3 ) GLOBAL_UNCERTAINTY_ASSIGNED_CONTEXT ( ( #313 ) ) GLOBAL_UNIT_ASSIGNED_CONTEXT ( ( #171, #166, #167 ) ) REPRESENTATION_CONTEXT ( 'NONE', 'WORKASPACE' ) );
#315 = DIRECTION ( 'NONE',  ( -1.000000000000000000, 0.0000000000000000000, 0.0000000000000000000 ) ) ;
#316 = AXIS2_PLACEMENT_3D ( 'NONE', #318, #315, #135 ) ;
#317 = SPHERICAL_SURFACE ( 'NONE', #316, 50.21999999999999900 ) ;
#318 = CARTESIAN_POINT ( 'NONE',  ( 0.0000000000000000000, 0.0000000000000000000, -50.90381814371713900 ) ) ;
#319 = DIRECTION ( 'NONE',  ( -0.0000000000000000000, -0.0000000000000000000, 1.000000000000000000 ) ) ;
#320 = CIRCLE ( 'NONE', #321, 12.70000000000000100 ) ;
#321 = AXIS2_PLACEMENT_3D ( 'NONE', #322, #319, #151 ) ;
#322 = CARTESIAN_POINT ( 'NONE',  ( 0.0000000000000000000, 0.0000000000000000000, -2.316181856282868000 ) ) ;
ENDSEC;
END-ISO-10303-21;
