ISO-10303-21;
HEADER;
FILE_DESCRIPTION (( 'STEP AP214' ),
    '1' );
FILE_NAME ('4479-E0W.STEP',
    '2009-12-21T17:06:05',
    ( ' ' ),
    ( ' ' ),
    'SwSTEP 2.0',
    'SolidWorks 2009',
    '' );
FILE_SCHEMA (( 'AUTOMOTIVE_DESIGN' ));
ENDSEC;

DATA;
#1 = ORIENTED_EDGE ( 'NONE', *, *, #8, .T. ) ;
#2 = VERTEX_POINT ( 'NONE', #50 ) ;
#3 = ORIENTED_EDGE ( 'NONE', *, *, #6, .F. ) ;
#4 = ORIENTED_EDGE ( 'NONE', *, *, #20, .T. ) ;
#5 = EDGE_LOOP ( 'NONE', ( #10, #13, #1, #9 ) ) ;
#6 = EDGE_CURVE ( 'NONE', #54, #2, #60, .T. ) ;
#7 = EDGE_CURVE ( 'NONE', #2, #28, #44, .T. ) ;
#8 = EDGE_CURVE ( 'NONE', #17, #21, #62, .T. ) ;
#9 = ORIENTED_EDGE ( 'NONE', *, *, #20, .F. ) ;
#10 = ORIENTED_EDGE ( 'NONE', *, *, #26, .T. ) ;
#11 = EDGE_CURVE ( 'NONE', #35, #17, #79, .T. ) ;
#12 = EDGE_LOOP ( 'NONE', ( #22, #16, #29, #4 ) ) ;
#13 = ORIENTED_EDGE ( 'NONE', *, *, #11, .T. ) ;
#14 = ADVANCED_FACE ( 'NONE', ( #90 ), #88, .T. ) ;
#15 = ADVANCED_FACE ( 'NONE', ( #108 ), #99, .T. ) ;
#16 = ORIENTED_EDGE ( 'NONE', *, *, #25, .T. ) ;
#17 = VERTEX_POINT ( 'NONE', #101 ) ;
#18 = ORIENTED_EDGE ( 'NONE', *, *, #11, .F. ) ;
#19 = EDGE_LOOP ( 'NONE', ( #59, #48, #49, #47, #18 ) ) ;
#20 = EDGE_CURVE ( 'NONE', #28, #21, #139, .T. ) ;
#21 = VERTEX_POINT ( 'NONE', #129 ) ;
#22 = ORIENTED_EDGE ( 'NONE', *, *, #8, .F. ) ;
#23 = ORIENTED_EDGE ( 'NONE', *, *, #51, .F. ) ;
#24 = CLOSED_SHELL ( 'NONE', ( #34, #15, #14, #38, #58 ) ) ;
#25 = EDGE_CURVE ( 'NONE', #17, #2, #107, .T. ) ;
#26 = EDGE_CURVE ( 'NONE', #28, #35, #105, .T. ) ;
#27 = ORIENTED_EDGE ( 'NONE', *, *, #7, .F. ) ;
#28 = VERTEX_POINT ( 'NONE', #121 ) ;
#29 = ORIENTED_EDGE ( 'NONE', *, *, #7, .T. ) ;
#30 = UNCERTAINTY_MEASURE_WITH_UNIT (LENGTH_MEASURE( 1.000000000000000100E-005 ), #215, 'distance_accuracy_value', 'NONE');
#31 = DIRECTION ( 'NONE',  ( 1.000000000000000000, 0.0000000000000000000, 0.0000000000000000000 ) ) ;
#32 = DIRECTION ( 'NONE',  ( -0.0000000000000000000, -0.0000000000000000000, 1.000000000000000000 ) ) ;
#33 = MANIFOLD_SOLID_BREP ( 'NONE', #24 ) ;
#34 = ADVANCED_FACE ( 'NONE', ( #150 ), #176, .T. ) ;
#35 = VERTEX_POINT ( 'NONE', #182 ) ;
#36 = ORIENTED_EDGE ( 'NONE', *, *, #26, .F. ) ;
#37 = EDGE_LOOP ( 'NONE', ( #41, #23 ) ) ;
#38 = ADVANCED_FACE ( 'NONE', ( #161 ), #173, .T. ) ;
#39 = ORIENTED_EDGE ( 'NONE', *, *, #40, .T. ) ;
#40 = EDGE_CURVE ( 'NONE', #46, #35, #194, .T. ) ;
#41 = ORIENTED_EDGE ( 'NONE', *, *, #45, .F. ) ;
#42 = CARTESIAN_POINT ( 'NONE',  ( 0.0000000000000000000, 0.0000000000000000000, 0.05939145286602918300 ) ) ;
#43 = AXIS2_PLACEMENT_3D ( 'NONE', #42, #32, #31 ) ;
#44 = CIRCLE ( 'NONE', #43, 6.350000000000001400 ) ;
#45 = EDGE_CURVE ( 'NONE', #54, #46, #189, .T. ) ;
#46 = VERTEX_POINT ( 'NONE', #163 ) ;
#47 = ORIENTED_EDGE ( 'NONE', *, *, #25, .F. ) ;
#48 = ORIENTED_EDGE ( 'NONE', *, *, #51, .T. ) ;
#49 = ORIENTED_EDGE ( 'NONE', *, *, #6, .T. ) ;
#50 = CARTESIAN_POINT ( 'NONE',  ( 6.350000000000001400, 0.0000000000000000000, 0.05939145286602918300 ) ) ;
#51 = EDGE_CURVE ( 'NONE', #46, #54, #246, .T. ) ;
#52 = EDGE_LOOP ( 'NONE', ( #53, #39, #36, #27, #3 ) ) ;
#53 = ORIENTED_EDGE ( 'NONE', *, *, #45, .T. ) ;
#54 = VERTEX_POINT ( 'NONE', #204 ) ;
#55 = DIRECTION ( 'NONE',  ( -0.0000000000000000000, -0.0000000000000000000, 1.000000000000000000 ) ) ;
#56 = VECTOR ( 'NONE', #55, 1000.000000000000000 ) ;
#57 = CARTESIAN_POINT ( 'NONE',  ( 6.350000000000001400, 0.0000000000000000000, 4.308132045400366600 ) ) ;
#58 = ADVANCED_FACE ( 'NONE', ( #224 ), #232, .F. ) ;
#59 = ORIENTED_EDGE ( 'NONE', *, *, #40, .F. ) ;
#60 = LINE ( 'NONE', #57, #56 ) ;
#61 = CARTESIAN_POINT ( 'NONE',  ( 0.0000000000000000000, 0.0000000000000000000, -11.13500000000000000 ) ) ;
#62 = CIRCLE ( 'NONE', #80, 12.86999999999999900 ) ;
#63 = DIRECTION ( 'NONE',  ( -1.224606353822377300E-016, -1.000000000000000000, 0.0000000000000000000 ) ) ;
#64 =( NAMED_UNIT ( * ) PLANE_ANGLE_UNIT ( ) SI_UNIT ( $, .RADIAN. ) );
#65 = DIRECTION ( 'NONE',  ( 0.0000000000000000000, 1.000000000000000000, 0.0000000000000000000 ) ) ;
#66 = DIRECTION ( 'NONE',  ( -1.000000000000000000, 0.0000000000000000000, 0.0000000000000000000 ) ) ;
#67 = PRESENTATION_LAYER_ASSIGNMENT (  '', '', ( #68 ) ) ;
#68 = STYLED_ITEM ( 'NONE', ( #81 ), #14 ) ;
#69 = COLOUR_RGB ( '',0.9568627450980391500, 0.9490196078431372100, 0.9607843137254902200 ) ;
#70 = DIRECTION ( 'NONE',  ( 1.000000000000000000, 0.0000000000000000000, 0.0000000000000000000 ) ) ;
#71 =( NAMED_UNIT ( * ) SI_UNIT ( $, .STERADIAN. ) SOLID_ANGLE_UNIT ( ) );
#72 = SURFACE_SIDE_STYLE ('',( #73 ) ) ;
#73 = SURFACE_STYLE_FILL_AREA ( #74 ) ;
#74 = FILL_AREA_STYLE ('',( #78 ) ) ;
#75 =( LENGTH_UNIT ( ) NAMED_UNIT ( * ) SI_UNIT ( .MILLI., .METRE. ) );
#76 = MECHANICAL_DESIGN_GEOMETRIC_PRESENTATION_REPRESENTATION (  '', ( #68 ), #89 ) ;
#77 = CARTESIAN_POINT ( 'NONE',  ( 0.0000000000000000000, 0.0000000000000000000, 0.05939145286602918300 ) ) ;
#78 = FILL_AREA_STYLE_COLOUR ( '', #69 ) ;
#79 = CIRCLE ( 'NONE', #91, 6.350000000000001400 ) ;
#80 = AXIS2_PLACEMENT_3D ( 'NONE', #61, #85, #63 ) ;
#81 = PRESENTATION_STYLE_ASSIGNMENT (( #82 ) ) ;
#82 = SURFACE_STYLE_USAGE ( .BOTH. , #72 ) ;
#83 = UNCERTAINTY_MEASURE_WITH_UNIT (LENGTH_MEASURE( 1.000000000000000100E-005 ), #75, 'distance_accuracy_value', 'NONE');
#84 = DIRECTION ( 'NONE',  ( -0.0000000000000000000, -0.0000000000000000000, 1.000000000000000000 ) ) ;
#85 = DIRECTION ( 'NONE',  ( -1.000000000000000000, 1.224606353822377300E-016, 0.0000000000000000000 ) ) ;
#86 = CARTESIAN_POINT ( 'NONE',  ( 0.0000000000000000000, 0.0000000000000000000, -11.13500000000000000 ) ) ;
#87 = AXIS2_PLACEMENT_3D ( 'NONE', #86, #66, #65 ) ;
#88 = SPHERICAL_SURFACE ( 'NONE', #87, 12.86999999999999900 ) ;
#89 =( GEOMETRIC_REPRESENTATION_CONTEXT ( 3 ) GLOBAL_UNCERTAINTY_ASSIGNED_CONTEXT ( ( #83 ) ) GLOBAL_UNIT_ASSIGNED_CONTEXT ( ( #75, #92, #71 ) ) REPRESENTATION_CONTEXT ( 'NONE', 'WORKASPACE' ) );
#90 = FACE_OUTER_BOUND ( 'NONE', #12, .T. ) ;
#91 = AXIS2_PLACEMENT_3D ( 'NONE', #77, #84, #70 ) ;
#92 =( NAMED_UNIT ( * ) PLANE_ANGLE_UNIT ( ) SI_UNIT ( $, .RADIAN. ) );
#93 = FILL_AREA_STYLE ('',( #137 ) ) ;
#94 =( NAMED_UNIT ( * ) PLANE_ANGLE_UNIT ( ) SI_UNIT ( $, .RADIAN. ) );
#95 =( LENGTH_UNIT ( ) NAMED_UNIT ( * ) SI_UNIT ( .MILLI., .METRE. ) );
#96 = MECHANICAL_DESIGN_GEOMETRIC_PRESENTATION_REPRESENTATION (  '', ( #110 ), #155 ) ;
#97 = SURFACE_SIDE_STYLE ('',( #128 ) ) ;
#98 = DIRECTION ( 'NONE',  ( 0.0000000000000000000, 1.000000000000000000, 0.0000000000000000000 ) ) ;
#99 = SPHERICAL_SURFACE ( 'NONE', #117, 12.86999999999999900 ) ;
#100 = CARTESIAN_POINT ( 'NONE',  ( 0.0000000000000000000, 0.0000000000000000000, 0.05939145286602918300 ) ) ;
#101 = CARTESIAN_POINT ( 'NONE',  ( -7.776250346772098400E-016, -6.350000000000001400, 0.05939145286602962000 ) ) ;
#102 = DIRECTION ( 'NONE',  ( 1.000000000000000000, 0.0000000000000000000, 0.0000000000000000000 ) ) ;
#103 = DIRECTION ( 'NONE',  ( -0.0000000000000000000, -0.0000000000000000000, 1.000000000000000000 ) ) ;
#104 = AXIS2_PLACEMENT_3D ( 'NONE', #100, #103, #102 ) ;
#105 = CIRCLE ( 'NONE', #104, 6.350000000000001400 ) ;
#106 = AXIS2_PLACEMENT_3D ( 'NONE', #133, #132, #131 ) ;
#107 = CIRCLE ( 'NONE', #106, 6.350000000000001400 ) ;
#108 = FACE_OUTER_BOUND ( 'NONE', #5, .T. ) ;
#109 = PRESENTATION_LAYER_ASSIGNMENT (  '', '', ( #110 ) ) ;
#110 = STYLED_ITEM ( 'NONE', ( #111 ), #33 ) ;
#111 = PRESENTATION_STYLE_ASSIGNMENT (( #112 ) ) ;
#112 = SURFACE_STYLE_USAGE ( .BOTH. , #113 ) ;
#113 = SURFACE_SIDE_STYLE ('',( #114 ) ) ;
#114 = SURFACE_STYLE_FILL_AREA ( #118 ) ;
#115 = DIRECTION ( 'NONE',  ( -1.000000000000000000, 0.0000000000000000000, 0.0000000000000000000 ) ) ;
#116 = CARTESIAN_POINT ( 'NONE',  ( 0.0000000000000000000, 0.0000000000000000000, -11.13500000000000000 ) ) ;
#117 = AXIS2_PLACEMENT_3D ( 'NONE', #116, #115, #98 ) ;
#118 = FILL_AREA_STYLE ('',( #119 ) ) ;
#119 = FILL_AREA_STYLE_COLOUR ( '', #120 ) ;
#120 = COLOUR_RGB ( '',0.7960784313725489700, 0.8235294117647058400, 0.9372549019607843100 ) ;
#121 = CARTESIAN_POINT ( 'NONE',  ( 0.0000000000000000000, 6.350000000000001400, 0.05939145286602962000 ) ) ;
#122 = UNCERTAINTY_MEASURE_WITH_UNIT (LENGTH_MEASURE( 1.000000000000000100E-005 ), #138, 'distance_accuracy_value', 'NONE');
#123 = COLOUR_RGB ( '',0.9568627450980391500, 0.9490196078431372100, 0.9607843137254902200 ) ;
#124 = SURFACE_STYLE_USAGE ( .BOTH. , #97 ) ;
#125 =( NAMED_UNIT ( * ) SI_UNIT ( $, .STERADIAN. ) SOLID_ANGLE_UNIT ( ) );
#126 = PRESENTATION_STYLE_ASSIGNMENT (( #124 ) ) ;
#127 = MECHANICAL_DESIGN_GEOMETRIC_PRESENTATION_REPRESENTATION (  '', ( #135 ), #134 ) ;
#128 = SURFACE_STYLE_FILL_AREA ( #93 ) ;
#129 = CARTESIAN_POINT ( 'NONE',  ( 0.0000000000000000000, 7.880341886846997100E-016, 1.735000000000000300 ) ) ;
#130 = DIRECTION ( 'NONE',  ( 0.0000000000000000000, 0.0000000000000000000, -1.000000000000000000 ) ) ;
#131 = DIRECTION ( 'NONE',  ( 1.000000000000000000, 0.0000000000000000000, 0.0000000000000000000 ) ) ;
#132 = DIRECTION ( 'NONE',  ( -0.0000000000000000000, -0.0000000000000000000, 1.000000000000000000 ) ) ;
#133 = CARTESIAN_POINT ( 'NONE',  ( 0.0000000000000000000, 0.0000000000000000000, 0.05939145286602918300 ) ) ;
#134 =( GEOMETRIC_REPRESENTATION_CONTEXT ( 3 ) GLOBAL_UNCERTAINTY_ASSIGNED_CONTEXT ( ( #122 ) ) GLOBAL_UNIT_ASSIGNED_CONTEXT ( ( #138, #94, #125 ) ) REPRESENTATION_CONTEXT ( 'NONE', 'WORKASPACE' ) );
#135 = STYLED_ITEM ( 'NONE', ( #126 ), #15 ) ;
#136 = PRESENTATION_LAYER_ASSIGNMENT (  '', '', ( #135 ) ) ;
#137 = FILL_AREA_STYLE_COLOUR ( '', #123 ) ;
#138 =( LENGTH_UNIT ( ) NAMED_UNIT ( * ) SI_UNIT ( .MILLI., .METRE. ) );
#139 = CIRCLE ( 'NONE', #142, 12.86999999999999900 ) ;
#140 = DIRECTION ( 'NONE',  ( 1.000000000000000000, 0.0000000000000000000, 0.0000000000000000000 ) ) ;
#141 = CARTESIAN_POINT ( 'NONE',  ( 0.0000000000000000000, 0.0000000000000000000, -11.13500000000000000 ) ) ;
#142 = AXIS2_PLACEMENT_3D ( 'NONE', #141, #140, #130 ) ;
#143 =( LENGTH_UNIT ( ) NAMED_UNIT ( * ) SI_UNIT ( .MILLI., .METRE. ) );
#144 =( NAMED_UNIT ( * ) SI_UNIT ( $, .STERADIAN. ) SOLID_ANGLE_UNIT ( ) );
#145 =( NAMED_UNIT ( * ) PLANE_ANGLE_UNIT ( ) SI_UNIT ( $, .RADIAN. ) );
#146 = SURFACE_SIDE_STYLE ('',( #148 ) ) ;
#147 = PRESENTATION_LAYER_ASSIGNMENT (  '', '', ( #149 ) ) ;
#148 = SURFACE_STYLE_FILL_AREA ( #158 ) ;
#149 = STYLED_ITEM ( 'NONE', ( #152 ), #34 ) ;
#150 = FACE_OUTER_BOUND ( 'NONE', #52, .T. ) ;
#151 =( NAMED_UNIT ( * ) SI_UNIT ( $, .STERADIAN. ) SOLID_ANGLE_UNIT ( ) );
#152 = PRESENTATION_STYLE_ASSIGNMENT (( #159 ) ) ;
#153 = MECHANICAL_DESIGN_GEOMETRIC_PRESENTATION_REPRESENTATION (  '', ( #149 ), #178 ) ;
#154 = FILL_AREA_STYLE_COLOUR ( '', #157 ) ;
#155 =( GEOMETRIC_REPRESENTATION_CONTEXT ( 3 ) GLOBAL_UNCERTAINTY_ASSIGNED_CONTEXT ( ( #156 ) ) GLOBAL_UNIT_ASSIGNED_CONTEXT ( ( #95, #64, #151 ) ) REPRESENTATION_CONTEXT ( 'NONE', 'WORKASPACE' ) );
#156 = UNCERTAINTY_MEASURE_WITH_UNIT (LENGTH_MEASURE( 1.000000000000000100E-005 ), #95, 'distance_accuracy_value', 'NONE');
#157 = COLOUR_RGB ( '',0.9568627450980391500, 0.9490196078431372100, 0.9607843137254902200 ) ;
#158 = FILL_AREA_STYLE ('',( #154 ) ) ;
#159 = SURFACE_STYLE_USAGE ( .BOTH. , #146 ) ;
#160 = COLOUR_RGB ( '',0.9568627450980391500, 0.9490196078431372100, 0.9607843137254902200 ) ;
#161 = FACE_OUTER_BOUND ( 'NONE', #19, .T. ) ;
#162 = DIRECTION ( 'NONE',  ( -0.0000000000000000000, -0.0000000000000000000, 1.000000000000000000 ) ) ;
#163 = CARTESIAN_POINT ( 'NONE',  ( -6.350000000000000500, 7.776250346772096400E-016, -1.735000000000000300 ) ) ;
#164 = DIRECTION ( 'NONE',  ( 1.000000000000000000, 0.0000000000000000000, 0.0000000000000000000 ) ) ;
#165 = DIRECTION ( 'NONE',  ( -0.0000000000000000000, -0.0000000000000000000, 1.000000000000000000 ) ) ;
#166 = VECTOR ( 'NONE', #175, 1000.000000000000000 ) ;
#167 = CARTESIAN_POINT ( 'NONE',  ( -6.350000000000001400, 7.776250346772097400E-016, 4.308132045400366600 ) ) ;
#168 = DIRECTION ( 'NONE',  ( -0.0000000000000000000, -0.0000000000000000000, 1.000000000000000000 ) ) ;
#169 = FILL_AREA_STYLE_COLOUR ( '', #160 ) ;
#170 = MECHANICAL_DESIGN_GEOMETRIC_PRESENTATION_REPRESENTATION (  '', ( #185 ), #174 ) ;
#171 = PRESENTATION_LAYER_ASSIGNMENT (  '', '', ( #185 ) ) ;
#172 =( LENGTH_UNIT ( ) NAMED_UNIT ( * ) SI_UNIT ( .MILLI., .METRE. ) );
#173 = CYLINDRICAL_SURFACE ( 'NONE', #184, 6.350000000000001400 ) ;
#174 =( GEOMETRIC_REPRESENTATION_CONTEXT ( 3 ) GLOBAL_UNCERTAINTY_ASSIGNED_CONTEXT ( ( #190 ) ) GLOBAL_UNIT_ASSIGNED_CONTEXT ( ( #172, #196, #198 ) ) REPRESENTATION_CONTEXT ( 'NONE', 'WORKASPACE' ) );
#175 = DIRECTION ( 'NONE',  ( -0.0000000000000000000, -0.0000000000000000000, 1.000000000000000000 ) ) ;
#176 = CYLINDRICAL_SURFACE ( 'NONE', #177, 6.350000000000001400 ) ;
#177 = AXIS2_PLACEMENT_3D ( 'NONE', #179, #168, #180 ) ;
#178 =( GEOMETRIC_REPRESENTATION_CONTEXT ( 3 ) GLOBAL_UNCERTAINTY_ASSIGNED_CONTEXT ( ( #197 ) ) GLOBAL_UNIT_ASSIGNED_CONTEXT ( ( #143, #145, #144 ) ) REPRESENTATION_CONTEXT ( 'NONE', 'WORKASPACE' ) );
#179 = CARTESIAN_POINT ( 'NONE',  ( 0.0000000000000000000, 0.0000000000000000000, 4.308132045400366600 ) ) ;
#180 = DIRECTION ( 'NONE',  ( 1.000000000000000000, 0.0000000000000000000, 0.0000000000000000000 ) ) ;
#181 = FILL_AREA_STYLE ('',( #169 ) ) ;
#182 = CARTESIAN_POINT ( 'NONE',  ( -6.350000000000001400, 7.776250346772097400E-016, 0.05939145286602918300 ) ) ;
#183 = CARTESIAN_POINT ( 'NONE',  ( 0.0000000000000000000, 0.0000000000000000000, 4.308132045400366600 ) ) ;
#184 = AXIS2_PLACEMENT_3D ( 'NONE', #183, #162, #195 ) ;
#185 = STYLED_ITEM ( 'NONE', ( #186 ), #38 ) ;
#186 = PRESENTATION_STYLE_ASSIGNMENT (( #191 ) ) ;
#187 = CARTESIAN_POINT ( 'NONE',  ( 0.0000000000000000000, 0.0000000000000000000, -1.735000000000000300 ) ) ;
#188 = AXIS2_PLACEMENT_3D ( 'NONE', #187, #165, #164 ) ;
#189 = CIRCLE ( 'NONE', #188, 6.350000000000000500 ) ;
#190 = UNCERTAINTY_MEASURE_WITH_UNIT (LENGTH_MEASURE( 1.000000000000000100E-005 ), #172, 'distance_accuracy_value', 'NONE');
#191 = SURFACE_STYLE_USAGE ( .BOTH. , #192 ) ;
#192 = SURFACE_SIDE_STYLE ('',( #193 ) ) ;
#193 = SURFACE_STYLE_FILL_AREA ( #181 ) ;
#194 = LINE ( 'NONE', #167, #166 ) ;
#195 = DIRECTION ( 'NONE',  ( 1.000000000000000000, 0.0000000000000000000, 0.0000000000000000000 ) ) ;
#196 =( NAMED_UNIT ( * ) PLANE_ANGLE_UNIT ( ) SI_UNIT ( $, .RADIAN. ) );
#197 = UNCERTAINTY_MEASURE_WITH_UNIT (LENGTH_MEASURE( 1.000000000000000100E-005 ), #143, 'distance_accuracy_value', 'NONE');
#198 =( NAMED_UNIT ( * ) SI_UNIT ( $, .STERADIAN. ) SOLID_ANGLE_UNIT ( ) );
#199 = ADVANCED_BREP_SHAPE_REPRESENTATION ( '4479-E0W', ( #33, #249 ), #200 ) ;
#200 =( GEOMETRIC_REPRESENTATION_CONTEXT ( 3 ) GLOBAL_UNCERTAINTY_ASSIGNED_CONTEXT ( ( #213 ) ) GLOBAL_UNIT_ASSIGNED_CONTEXT ( ( #233, #209, #207 ) ) REPRESENTATION_CONTEXT ( 'NONE', 'WORKASPACE' ) );
#201 = DIRECTION ( 'NONE',  ( -0.0000000000000000000, -0.0000000000000000000, 1.000000000000000000 ) ) ;
#202 = STYLED_ITEM ( 'NONE', ( #210 ), #58 ) ;
#203 =( NAMED_UNIT ( * ) PLANE_ANGLE_UNIT ( ) SI_UNIT ( $, .RADIAN. ) );
#204 = CARTESIAN_POINT ( 'NONE',  ( 6.350000000000000500, 0.0000000000000000000, -1.735000000000000300 ) ) ;
#205 = DIRECTION ( 'NONE',  ( 1.000000000000000000, 0.0000000000000000000, 0.0000000000000000000 ) ) ;
#206 = PRESENTATION_LAYER_ASSIGNMENT (  '', '', ( #202 ) ) ;
#207 =( NAMED_UNIT ( * ) SI_UNIT ( $, .STERADIAN. ) SOLID_ANGLE_UNIT ( ) );
#208 = FILL_AREA_STYLE_COLOUR ( '', #247 ) ;
#209 =( NAMED_UNIT ( * ) PLANE_ANGLE_UNIT ( ) SI_UNIT ( $, .RADIAN. ) );
#210 = PRESENTATION_STYLE_ASSIGNMENT (( #218 ) ) ;
#211 =( NAMED_UNIT ( * ) SI_UNIT ( $, .STERADIAN. ) SOLID_ANGLE_UNIT ( ) );
#212 = SURFACE_SIDE_STYLE ('',( #227 ) ) ;
#213 = UNCERTAINTY_MEASURE_WITH_UNIT (LENGTH_MEASURE( 1.000000000000000100E-005 ), #233, 'distance_accuracy_value', 'NONE');
#214 = FILL_AREA_STYLE ('',( #208 ) ) ;
#215 =( LENGTH_UNIT ( ) NAMED_UNIT ( * ) SI_UNIT ( .MILLI., .METRE. ) );
#216 = MECHANICAL_DESIGN_GEOMETRIC_PRESENTATION_REPRESENTATION (  '', ( #238 ), #250 ) ;
#217 = PRESENTATION_LAYER_ASSIGNMENT (  '', '', ( #238 ) ) ;
#218 = SURFACE_STYLE_USAGE ( .BOTH. , #212 ) ;
#219 = UNCERTAINTY_MEASURE_WITH_UNIT (LENGTH_MEASURE( 1.000000000000000100E-005 ), #234, 'distance_accuracy_value', 'NONE');
#220 =( GEOMETRIC_REPRESENTATION_CONTEXT ( 3 ) GLOBAL_UNCERTAINTY_ASSIGNED_CONTEXT ( ( #219 ) ) GLOBAL_UNIT_ASSIGNED_CONTEXT ( ( #234, #203, #211 ) ) REPRESENTATION_CONTEXT ( 'NONE', 'WORKASPACE' ) );
#221 =( NAMED_UNIT ( * ) SI_UNIT ( $, .STERADIAN. ) SOLID_ANGLE_UNIT ( ) );
#222 =( NAMED_UNIT ( * ) PLANE_ANGLE_UNIT ( ) SI_UNIT ( $, .RADIAN. ) );
#223 = AXIS2_PLACEMENT_3D ( 'NONE', #248, #201, #229 ) ;
#224 = FACE_OUTER_BOUND ( 'NONE', #37, .T. ) ;
#225 = PRODUCT_DEFINITION ( 'UNKNOWN', '', #231, #226 ) ;
#226 = PRODUCT_DEFINITION_CONTEXT ( 'detailed design', #252, 'design' ) ;
#227 = SURFACE_STYLE_FILL_AREA ( #214 ) ;
#228 = MECHANICAL_DESIGN_GEOMETRIC_PRESENTATION_REPRESENTATION (  '', ( #202 ), #220 ) ;
#229 = DIRECTION ( 'NONE',  ( 1.000000000000000000, 0.0000000000000000000, 0.0000000000000000000 ) ) ;
#230 = PRODUCT_RELATED_PRODUCT_CATEGORY ( 'part', '', ( #253 ) ) ;
#231 = PRODUCT_DEFINITION_FORMATION_WITH_SPECIFIED_SOURCE ( 'ANY', '', #253, .NOT_KNOWN. ) ;
#232 = PLANE ( 'NONE',  #237 ) ;
#233 =( LENGTH_UNIT ( ) NAMED_UNIT ( * ) SI_UNIT ( .MILLI., .METRE. ) );
#234 =( LENGTH_UNIT ( ) NAMED_UNIT ( * ) SI_UNIT ( .MILLI., .METRE. ) );
#235 = DIRECTION ( 'NONE',  ( 0.0000000000000000000, -0.0000000000000000000, 1.000000000000000000 ) ) ;
#236 = CARTESIAN_POINT ( 'NONE',  ( 0.0000000000000000000, 6.374286589561973300E-016, -1.735000000000000100 ) ) ;
#237 = AXIS2_PLACEMENT_3D ( 'NONE', #236, #235, #205 ) ;
#238 = STYLED_ITEM ( 'NONE', ( #239 ), #199 ) ;
#239 = PRESENTATION_STYLE_ASSIGNMENT (( #240 ) ) ;
#240 = SURFACE_STYLE_USAGE ( .BOTH. , #241 ) ;
#241 = SURFACE_SIDE_STYLE ('',( #242 ) ) ;
#242 = SURFACE_STYLE_FILL_AREA ( #243 ) ;
#243 = FILL_AREA_STYLE ('',( #244 ) ) ;
#244 = FILL_AREA_STYLE_COLOUR ( '', #245 ) ;
#245 = COLOUR_RGB ( '',0.7960784313725489700, 0.8235294117647058400, 0.9372549019607843100 ) ;
#246 = CIRCLE ( 'NONE', #223, 6.350000000000000500 ) ;
#247 = COLOUR_RGB ( '',0.9568627450980391500, 0.9490196078431372100, 0.9607843137254902200 ) ;
#248 = CARTESIAN_POINT ( 'NONE',  ( 0.0000000000000000000, 0.0000000000000000000, -1.735000000000000300 ) ) ;
#249 = AXIS2_PLACEMENT_3D ( 'NONE', #259, #258, #256 ) ;
#250 =( GEOMETRIC_REPRESENTATION_CONTEXT ( 3 ) GLOBAL_UNCERTAINTY_ASSIGNED_CONTEXT ( ( #30 ) ) GLOBAL_UNIT_ASSIGNED_CONTEXT ( ( #215, #222, #221 ) ) REPRESENTATION_CONTEXT ( 'NONE', 'WORKASPACE' ) );
#251 = APPLICATION_PROTOCOL_DEFINITION ( 'draft international standard', 'automotive_design', 1998, #252 ) ;
#252 = APPLICATION_CONTEXT ( 'automotive_design' ) ;
#253 = PRODUCT ( '4479-E0W', '4479-E0W', '', ( #254 ) ) ;
#254 = PRODUCT_CONTEXT ( 'NONE', #257, 'mechanical' ) ;
#255 = APPLICATION_PROTOCOL_DEFINITION ( 'draft international standard', 'automotive_design', 1998, #257 ) ;
#256 = DIRECTION ( 'NONE',  ( 1.000000000000000000, 0.0000000000000000000, 0.0000000000000000000 ) ) ;
#257 = APPLICATION_CONTEXT ( 'automotive_design' ) ;
#258 = DIRECTION ( 'NONE',  ( 0.0000000000000000000, 0.0000000000000000000, 1.000000000000000000 ) ) ;
#259 = CARTESIAN_POINT ( 'NONE',  ( 0.0000000000000000000, 0.0000000000000000000, 0.0000000000000000000 ) ) ;
#260 = PRODUCT_DEFINITION_SHAPE ( 'NONE', 'NONE',  #225 ) ;
#261 = SHAPE_DEFINITION_REPRESENTATION ( #260, #199 ) ;
ENDSEC;
END-ISO-10303-21;
