ISO-10303-21;
HEADER;
FILE_DESCRIPTION (( 'STEP AP203' ),
    '1' );
FILE_NAME ('Web Model 68432.STEP',
    '2017-01-31T20:03:52',
    ( '' ),
    ( '' ),
    'SwSTEP 2.0',
    'SolidWorks 2016',
    '' );
FILE_SCHEMA (( 'CONFIG_CONTROL_DESIGN' ));
ENDSEC;

DATA;
#1 = DATE_TIME_ROLE ( 'creation_date' ) ;
#2 = ADVANCED_FACE ( 'NONE', ( #7 ), #95, .F. ) ;
#3 = CC_DESIGN_SECURITY_CLASSIFICATION ( #46, ( #175 ) ) ;
#4 = APPROVAL_PERSON_ORGANIZATION ( #155, #93, #180 ) ;
#5 = VECTOR ( 'NONE', #15, 1000.000000000000000 ) ;
#6 = EDGE_LOOP ( 'NONE', ( #56, #224, #110, #28 ) ) ;
#7 = FACE_OUTER_BOUND ( 'NONE', #237, .T. ) ;
#8 = CARTESIAN_POINT ( 'NONE',  ( -37.50000000000000000, -25.00000000000000700, 3.000000000000000000 ) ) ;
#9 = CARTESIAN_POINT ( 'NONE',  ( -37.50000000000000000, -25.00000000000000700, 3.000000000000000000 ) ) ;
#10 = VECTOR ( 'NONE', #117, 1000.000000000000000 ) ;
#11 = CARTESIAN_POINT ( 'NONE',  ( 37.50000000000000000, 25.00000000000000000, 3.000000000000000000 ) ) ;
#12 = DIRECTION ( 'NONE',  ( 0.0000000000000000000, 0.0000000000000000000, 1.000000000000000000 ) ) ;
#13 = ORIENTED_EDGE ( 'NONE', *, *, #30, .F. ) ;
#14 = DIRECTION ( 'NONE',  ( -1.000000000000000000, -9.251858538542971600E-017, 0.0000000000000000000 ) ) ;
#15 = DIRECTION ( 'NONE',  ( -0.0000000000000000000, -0.0000000000000000000, -1.000000000000000000 ) ) ;
#16 = CC_DESIGN_PERSON_AND_ORGANIZATION_ASSIGNMENT ( #98, #83, ( #46 ) ) ;
#17 = CARTESIAN_POINT ( 'NONE',  ( 37.50000000000000000, 25.00000000000000000, 3.000000000000000000 ) ) ;
#18 = CALENDAR_DATE ( 2017, 31, 1 ) ;
#19 = PLANE ( 'NONE',  #194 ) ;
#20 = LINE ( 'NONE', #31, #27 ) ;
#21 = AXIS2_PLACEMENT_3D ( 'NONE', #53, #171, #205 ) ;
#22 = LINE ( 'NONE', #9, #10 ) ;
#23 = VERTEX_POINT ( 'NONE', #152 ) ;
#24 = PRODUCT_DEFINITION ( 'UNKNOWN', '', #175, #216 ) ;
#25 = PERSON_AND_ORGANIZATION_ROLE ( 'design_owner' ) ;
#26 = VECTOR ( 'NONE', #82, 1000.000000000000000 ) ;
#27 = VECTOR ( 'NONE', #139, 1000.000000000000000 ) ;
#28 = ORIENTED_EDGE ( 'NONE', *, *, #197, .T. ) ;
#29 = EDGE_CURVE ( 'NONE', #23, #92, #22, .T. ) ;
#30 = EDGE_CURVE ( 'NONE', #130, #102, #213, .T. ) ;
#31 = CARTESIAN_POINT ( 'NONE',  ( 37.50000000000000000, 25.00000000000000000, 0.0000000000000000000 ) ) ;
#32 = ORIENTED_EDGE ( 'NONE', *, *, #183, .T. ) ;
#33 = AXIS2_PLACEMENT_3D ( 'NONE', #64, #121, #177 ) ;
#34 = DIRECTION ( 'NONE',  ( 1.000000000000000000, 9.251858538542970300E-017, 0.0000000000000000000 ) ) ;
#35 = VECTOR ( 'NONE', #79, 1000.000000000000000 ) ;
#36 = ORIENTED_EDGE ( 'NONE', *, *, #40, .F. ) ;
#37 = DIRECTION ( 'NONE',  ( 1.000000000000000000, 0.0000000000000000000, -0.0000000000000000000 ) ) ;
#38 = CARTESIAN_POINT ( 'NONE',  ( 37.50000000000000000, -24.99999999999999600, 3.000000000000000000 ) ) ;
#39 = DATE_AND_TIME ( #75, #225 ) ;
#40 = EDGE_CURVE ( 'NONE', #45, #102, #94, .T. ) ;
#41 = CARTESIAN_POINT ( 'NONE',  ( 37.50000000000000000, -24.99999999999999600, 3.000000000000000000 ) ) ;
#42 = LOCAL_TIME ( 15, 3, 52.00000000000000000, #84 ) ;
#43 = LINE ( 'NONE', #191, #65 ) ;
#44 = ORIENTED_EDGE ( 'NONE', *, *, #29, .F. ) ;
#45 = VERTEX_POINT ( 'NONE', #61 ) ;
#46 = SECURITY_CLASSIFICATION ( '', '', #111 ) ;
#47 = SHAPE_DEFINITION_REPRESENTATION ( #164, #219 ) ;
#48 = CC_DESIGN_PERSON_AND_ORGANIZATION_ASSIGNMENT ( #129, #25, ( #200 ) ) ;
#49 = APPROVAL_PERSON_ORGANIZATION ( #137, #78, #215 ) ;
#50 = ORIENTED_EDGE ( 'NONE', *, *, #90, .T. ) ;
#51 = CARTESIAN_POINT ( 'NONE',  ( -37.50000000000000000, -25.00000000000000700, 0.0000000000000000000 ) ) ;
#52 = CLOSED_SHELL ( 'NONE', ( #124, #88, #144, #72, #2, #67 ) ) ;
#53 = CARTESIAN_POINT ( 'NONE',  ( -37.50000000000000000, -25.00000000000000700, 0.0000000000000000000 ) ) ;
#54 = CARTESIAN_POINT ( 'NONE',  ( -37.50000000000000000, 24.99999999999999300, 3.000000000000000000 ) ) ;
#55 = PERSON_AND_ORGANIZATION_ROLE ( 'creator' ) ;
#56 = ORIENTED_EDGE ( 'NONE', *, *, #114, .T. ) ;
#57 = AXIS2_PLACEMENT_3D ( 'NONE', #8, #77, #228 ) ;
#58 = FACE_OUTER_BOUND ( 'NONE', #161, .T. ) ;
#59 = CALENDAR_DATE ( 2017, 31, 1 ) ;
#60 = EDGE_LOOP ( 'NONE', ( #115, #13, #63, #69 ) ) ;
#61 = CARTESIAN_POINT ( 'NONE',  ( 37.50000000000000000, 25.00000000000000000, 0.0000000000000000000 ) ) ;
#62 = CARTESIAN_POINT ( 'NONE',  ( -37.50000000000000000, 24.99999999999999300, 0.0000000000000000000 ) ) ;
#63 = ORIENTED_EDGE ( 'NONE', *, *, #183, .F. ) ;
#64 = CARTESIAN_POINT ( 'NONE',  ( 37.50000000000000000, 25.00000000000000000, 3.000000000000000000 ) ) ;
#65 = VECTOR ( 'NONE', #207, 1000.000000000000000 ) ;
#66 = APPLICATION_PROTOCOL_DEFINITION ( 'international standard', 'config_control_design', 1994, #70 ) ;
#67 = ADVANCED_FACE ( 'NONE', ( #74 ), #170, .T. ) ;
#68 = LINE ( 'NONE', #226, #35 ) ;
#69 = ORIENTED_EDGE ( 'NONE', *, *, #136, .T. ) ;
#70 = APPLICATION_CONTEXT ( 'configuration controlled 3d designs of mechanical parts and assemblies' ) ;
#71 = APPROVAL_STATUS ( 'not_yet_approved' ) ;
#72 = ADVANCED_FACE ( 'NONE', ( #100 ), #99, .F. ) ;
#73 = APPROVAL_DATE_TIME ( #165, #234 ) ;
#74 = FACE_OUTER_BOUND ( 'NONE', #202, .T. ) ;
#75 = CALENDAR_DATE ( 2017, 31, 1 ) ;
#76 = EDGE_LOOP ( 'NONE', ( #122, #179, #86, #192 ) ) ;
#77 = DIRECTION ( 'NONE',  ( 0.0000000000000000000, 0.0000000000000000000, -1.000000000000000000 ) ) ;
#78 = APPROVAL ( #71, 'UNSPECIFIED' ) ;
#79 = DIRECTION ( 'NONE',  ( -0.0000000000000000000, 1.000000000000000000, -0.0000000000000000000 ) ) ;
#80 = CARTESIAN_POINT ( 'NONE',  ( 37.50000000000000000, 25.00000000000000000, 3.000000000000000000 ) ) ;
#81 =( LENGTH_UNIT ( ) NAMED_UNIT ( * ) SI_UNIT ( .MILLI., .METRE. ) );
#82 = DIRECTION ( 'NONE',  ( 1.000000000000000000, 1.387778780781445700E-016, -0.0000000000000000000 ) ) ;
#83 = PERSON_AND_ORGANIZATION_ROLE ( 'classification_officer' ) ;
#84 = COORDINATED_UNIVERSAL_TIME_OFFSET ( 5, 0, .BEHIND. ) ;
#85 = EDGE_CURVE ( 'NONE', #130, #23, #43, .T. ) ;
#86 = ORIENTED_EDGE ( 'NONE', *, *, #140, .F. ) ;
#87 = MECHANICAL_CONTEXT ( 'NONE', #70, 'mechanical' ) ;
#88 = ADVANCED_FACE ( 'NONE', ( #109 ), #151, .F. ) ;
#89 =( GEOMETRIC_REPRESENTATION_CONTEXT ( 3 ) GLOBAL_UNCERTAINTY_ASSIGNED_CONTEXT ( ( #97 ) ) GLOBAL_UNIT_ASSIGNED_CONTEXT ( ( #81, #210, #173 ) ) REPRESENTATION_CONTEXT ( 'NONE', 'WORKASPACE' ) );
#90 = EDGE_CURVE ( 'NONE', #169, #127, #68, .T. ) ;
#91 = COORDINATED_UNIVERSAL_TIME_OFFSET ( 5, 0, .BEHIND. ) ;
#92 = VERTEX_POINT ( 'NONE', #51 ) ;
#93 = APPROVAL ( #181, 'UNSPECIFIED' ) ;
#94 = LINE ( 'NONE', #153, #204 ) ;
#95 = PLANE ( 'NONE',  #57 ) ;
#96 = CARTESIAN_POINT ( 'NONE',  ( 37.50000000000000000, -24.99999999999999600, 3.000000000000000000 ) ) ;
#97 = UNCERTAINTY_MEASURE_WITH_UNIT (LENGTH_MEASURE( 1.000000000000000100E-005 ), #81, 'distance_accuracy_value', 'NONE');
#98 = PERSON_AND_ORGANIZATION ( #184, #163 ) ;
#99 = PLANE ( 'NONE',  #182 ) ;
#100 = FACE_OUTER_BOUND ( 'NONE', #60, .T. ) ;
#101 = CARTESIAN_POINT ( 'NONE',  ( 37.50000000000000000, 25.00000000000000000, 3.000000000000000000 ) ) ;
#102 = VERTEX_POINT ( 'NONE', #62 ) ;
#103 = CARTESIAN_POINT ( 'NONE',  ( 37.50000000000000000, -24.99999999999999600, 0.0000000000000000000 ) ) ;
#104 = DIRECTION ( 'NONE',  ( -0.0000000000000000000, -0.0000000000000000000, -1.000000000000000000 ) ) ;
#105 = PERSON_AND_ORGANIZATION ( #184, #163 ) ;
#106 = DATE_TIME_ROLE ( 'classification_date' ) ;
#107 = PRODUCT_RELATED_PRODUCT_CATEGORY ( 'detail', '', ( #200 ) ) ;
#108 = PERSON_AND_ORGANIZATION_ROLE ( 'creator' ) ;
#109 = FACE_OUTER_BOUND ( 'NONE', #76, .T. ) ;
#110 = ORIENTED_EDGE ( 'NONE', *, *, #90, .F. ) ;
#111 = SECURITY_CLASSIFICATION_LEVEL ( 'unclassified' ) ;
#112 = PERSON_AND_ORGANIZATION ( #184, #163 ) ;
#113 = LINE ( 'NONE', #101, #5 ) ;
#114 = EDGE_CURVE ( 'NONE', #143, #45, #20, .T. ) ;
#115 = ORIENTED_EDGE ( 'NONE', *, *, #40, .T. ) ;
#116 = DIRECTION ( 'NONE',  ( -0.0000000000000000000, -0.0000000000000000000, -1.000000000000000000 ) ) ;
#117 = DIRECTION ( 'NONE',  ( -0.0000000000000000000, -0.0000000000000000000, -1.000000000000000000 ) ) ;
#118 = AXIS2_PLACEMENT_3D ( 'NONE', #119, #12, #123 ) ;
#119 = CARTESIAN_POINT ( 'NONE',  ( 0.0000000000000000000, 0.0000000000000000000, 0.0000000000000000000 ) ) ;
#120 = CARTESIAN_POINT ( 'NONE',  ( -37.50000000000000000, 24.99999999999999300, 0.0000000000000000000 ) ) ;
#121 = DIRECTION ( 'NONE',  ( -1.000000000000000000, 0.0000000000000000000, 0.0000000000000000000 ) ) ;
#122 = ORIENTED_EDGE ( 'NONE', *, *, #199, .T. ) ;
#123 = DIRECTION ( 'NONE',  ( 1.000000000000000000, 0.0000000000000000000, 0.0000000000000000000 ) ) ;
#124 = ADVANCED_FACE ( 'NONE', ( #58 ), #19, .F. ) ;
#125 = COORDINATED_UNIVERSAL_TIME_OFFSET ( 5, 0, .BEHIND. ) ;
#126 = VECTOR ( 'NONE', #116, 1000.000000000000000 ) ;
#127 = VERTEX_POINT ( 'NONE', #80 ) ;
#128 = DATE_AND_TIME ( #174, #168 ) ;
#129 = PERSON_AND_ORGANIZATION ( #184, #163 ) ;
#130 = VERTEX_POINT ( 'NONE', #141 ) ;
#131 = APPROVAL_DATE_TIME ( #39, #78 ) ;
#132 = DIRECTION ( 'NONE',  ( -1.000000000000000000, -1.387778780781445400E-016, 0.0000000000000000000 ) ) ;
#133 = APPROVAL_PERSON_ORGANIZATION ( #112, #234, #142 ) ;
#134 = LINE ( 'NONE', #209, #149 ) ;
#135 = DIRECTION ( 'NONE',  ( -1.000000000000000000, -9.251858538542971600E-017, 0.0000000000000000000 ) ) ;
#136 = EDGE_CURVE ( 'NONE', #127, #45, #113, .T. ) ;
#137 = PERSON_AND_ORGANIZATION ( #184, #163 ) ;
#138 = ORIENTED_EDGE ( 'NONE', *, *, #85, .F. ) ;
#139 = DIRECTION ( 'NONE',  ( -0.0000000000000000000, 1.000000000000000000, -0.0000000000000000000 ) ) ;
#140 = EDGE_CURVE ( 'NONE', #23, #169, #223, .T. ) ;
#141 = CARTESIAN_POINT ( 'NONE',  ( -37.50000000000000000, 24.99999999999999300, 3.000000000000000000 ) ) ;
#142 = APPROVAL_ROLE ( '' ) ;
#143 = VERTEX_POINT ( 'NONE', #103 ) ;
#144 = ADVANCED_FACE ( 'NONE', ( #166 ), #158, .F. ) ;
#145 = CC_DESIGN_PERSON_AND_ORGANIZATION_ASSIGNMENT ( #222, #108, ( #175 ) ) ;
#146 = VECTOR ( 'NONE', #14, 1000.000000000000000 ) ;
#147 = APPLICATION_CONTEXT ( 'configuration controlled 3d designs of mechanical parts and assemblies' ) ;
#148 = LINE ( 'NONE', #120, #190 ) ;
#149 = VECTOR ( 'NONE', #157, 1000.000000000000000 ) ;
#150 = ORIENTED_EDGE ( 'NONE', *, *, #140, .T. ) ;
#151 = PLANE ( 'NONE',  #187 ) ;
#152 = CARTESIAN_POINT ( 'NONE',  ( -37.50000000000000000, -25.00000000000000700, 3.000000000000000000 ) ) ;
#153 = CARTESIAN_POINT ( 'NONE',  ( 37.50000000000000000, 25.00000000000000000, 0.0000000000000000000 ) ) ;
#154 = CARTESIAN_POINT ( 'NONE',  ( -37.50000000000000000, 24.99999999999999300, 3.000000000000000000 ) ) ;
#155 = PERSON_AND_ORGANIZATION ( #184, #163 ) ;
#156 = CC_DESIGN_DATE_AND_TIME_ASSIGNMENT ( #198, #106, ( #46 ) ) ;
#157 = DIRECTION ( 'NONE',  ( 1.000000000000000000, 1.387778780781445700E-016, -0.0000000000000000000 ) ) ;
#158 = PLANE ( 'NONE',  #33 ) ;
#159 = CARTESIAN_POINT ( 'NONE',  ( 37.50000000000000000, -24.99999999999999600, 3.000000000000000000 ) ) ;
#160 = APPROVAL_DATE_TIME ( #236, #93 ) ;
#161 = EDGE_LOOP ( 'NONE', ( #167, #44, #138, #186 ) ) ;
#162 = CC_DESIGN_PERSON_AND_ORGANIZATION_ASSIGNMENT ( #232, #55, ( #24 ) ) ;
#163 = ORGANIZATION ( 'UNSPECIFIED', 'UNSPECIFIED', '' ) ;
#164 = PRODUCT_DEFINITION_SHAPE ( 'NONE', 'NONE',  #24 ) ;
#165 = DATE_AND_TIME ( #59, #42 ) ;
#166 = FACE_OUTER_BOUND ( 'NONE', #6, .T. ) ;
#167 = ORIENTED_EDGE ( 'NONE', *, *, #231, .T. ) ;
#168 = LOCAL_TIME ( 15, 3, 52.00000000000000000, #220 ) ;
#169 = VERTEX_POINT ( 'NONE', #159 ) ;
#170 = PLANE ( 'NONE',  #21 ) ;
#171 = DIRECTION ( 'NONE',  ( 0.0000000000000000000, 0.0000000000000000000, -1.000000000000000000 ) ) ;
#172 = ORIENTED_EDGE ( 'NONE', *, *, #231, .F. ) ;
#173 =( NAMED_UNIT ( * ) SI_UNIT ( $, .STERADIAN. ) SOLID_ANGLE_UNIT ( ) );
#174 = CALENDAR_DATE ( 2017, 31, 1 ) ;
#175 = PRODUCT_DEFINITION_FORMATION_WITH_SPECIFIED_SOURCE ( 'ANY', '', #200, .NOT_KNOWN. ) ;
#176 = DIRECTION ( 'NONE',  ( -0.0000000000000000000, 0.0000000000000000000, -1.000000000000000000 ) ) ;
#177 = DIRECTION ( 'NONE',  ( 0.0000000000000000000, 0.0000000000000000000, 1.000000000000000000 ) ) ;
#178 = PERSON_AND_ORGANIZATION_ROLE ( 'design_supplier' ) ;
#179 = ORIENTED_EDGE ( 'NONE', *, *, #197, .F. ) ;
#180 = APPROVAL_ROLE ( '' ) ;
#181 = APPROVAL_STATUS ( 'not_yet_approved' ) ;
#182 = AXIS2_PLACEMENT_3D ( 'NONE', #11, #189, #34 ) ;
#183 = EDGE_CURVE ( 'NONE', #127, #130, #195, .T. ) ;
#184 = PERSON ( 'UNSPECIFIED', 'UNSPECIFIED', 'UNSPECIFIED', ('UNSPECIFIED'), ('UNSPECIFIED'), ('UNSPECIFIED') ) ;
#185 = LOCAL_TIME ( 15, 3, 52.00000000000000000, #125 ) ;
#186 = ORIENTED_EDGE ( 'NONE', *, *, #30, .T. ) ;
#187 = AXIS2_PLACEMENT_3D ( 'NONE', #96, #229, #132 ) ;
#188 = COORDINATED_UNIVERSAL_TIME_OFFSET ( 5, 0, .BEHIND. ) ;
#189 = DIRECTION ( 'NONE',  ( 9.251858538542970300E-017, -1.000000000000000000, 0.0000000000000000000 ) ) ;
#190 = VECTOR ( 'NONE', #212, 1000.000000000000000 ) ;
#191 = CARTESIAN_POINT ( 'NONE',  ( -37.50000000000000000, 24.99999999999999300, 3.000000000000000000 ) ) ;
#192 = ORIENTED_EDGE ( 'NONE', *, *, #29, .T. ) ;
#193 = CC_DESIGN_APPROVAL ( #234, ( #46 ) ) ;
#194 = AXIS2_PLACEMENT_3D ( 'NONE', #54, #37, #176 ) ;
#195 = LINE ( 'NONE', #17, #146 ) ;
#196 = APPLICATION_PROTOCOL_DEFINITION ( 'international standard', 'config_control_design', 1994, #147 ) ;
#197 = EDGE_CURVE ( 'NONE', #169, #143, #218, .T. ) ;
#198 = DATE_AND_TIME ( #217, #185 ) ;
#199 = EDGE_CURVE ( 'NONE', #92, #143, #134, .T. ) ;
#200 = PRODUCT ( 'Web Model 68432', 'Web Model 68432', '', ( #87 ) ) ;
#201 = CC_DESIGN_DATE_AND_TIME_ASSIGNMENT ( #128, #1, ( #24 ) ) ;
#202 = EDGE_LOOP ( 'NONE', ( #172, #36, #230, #221 ) ) ;
#203 = LOCAL_TIME ( 15, 3, 52.00000000000000000, #91 ) ;
#204 = VECTOR ( 'NONE', #135, 1000.000000000000000 ) ;
#205 = DIRECTION ( 'NONE',  ( -1.000000000000000000, 0.0000000000000000000, -0.0000000000000000000 ) ) ;
#206 = CC_DESIGN_APPROVAL ( #78, ( #24 ) ) ;
#207 = DIRECTION ( 'NONE',  ( 0.0000000000000000000, -1.000000000000000000, 0.0000000000000000000 ) ) ;
#208 = VECTOR ( 'NONE', #104, 1000.000000000000000 ) ;
#209 = CARTESIAN_POINT ( 'NONE',  ( 37.50000000000000000, -24.99999999999999600, 0.0000000000000000000 ) ) ;
#210 =( NAMED_UNIT ( * ) PLANE_ANGLE_UNIT ( ) SI_UNIT ( $, .RADIAN. ) );
#211 = CC_DESIGN_APPROVAL ( #93, ( #175 ) ) ;
#212 = DIRECTION ( 'NONE',  ( 0.0000000000000000000, -1.000000000000000000, 0.0000000000000000000 ) ) ;
#213 = LINE ( 'NONE', #154, #126 ) ;
#214 = MANIFOLD_SOLID_BREP ( 'Extrude1', #52 ) ;
#215 = APPROVAL_ROLE ( '' ) ;
#216 = DESIGN_CONTEXT ( 'detailed design', #147, 'design' ) ;
#217 = CALENDAR_DATE ( 2017, 31, 1 ) ;
#218 = LINE ( 'NONE', #41, #208 ) ;
#219 = ADVANCED_BREP_SHAPE_REPRESENTATION ( 'Web Model 68432', ( #214, #118 ), #89 ) ;
#220 = COORDINATED_UNIVERSAL_TIME_OFFSET ( 5, 0, .BEHIND. ) ;
#221 = ORIENTED_EDGE ( 'NONE', *, *, #199, .F. ) ;
#222 = PERSON_AND_ORGANIZATION ( #184, #163 ) ;
#223 = LINE ( 'NONE', #38, #26 ) ;
#224 = ORIENTED_EDGE ( 'NONE', *, *, #136, .F. ) ;
#225 = LOCAL_TIME ( 15, 3, 52.00000000000000000, #188 ) ;
#226 = CARTESIAN_POINT ( 'NONE',  ( 37.50000000000000000, 25.00000000000000000, 3.000000000000000000 ) ) ;
#227 = CC_DESIGN_PERSON_AND_ORGANIZATION_ASSIGNMENT ( #105, #178, ( #175 ) ) ;
#228 = DIRECTION ( 'NONE',  ( -1.000000000000000000, 0.0000000000000000000, -0.0000000000000000000 ) ) ;
#229 = DIRECTION ( 'NONE',  ( -1.387778780781445400E-016, 1.000000000000000000, 0.0000000000000000000 ) ) ;
#230 = ORIENTED_EDGE ( 'NONE', *, *, #114, .F. ) ;
#231 = EDGE_CURVE ( 'NONE', #102, #92, #148, .T. ) ;
#232 = PERSON_AND_ORGANIZATION ( #184, #163 ) ;
#233 = ORIENTED_EDGE ( 'NONE', *, *, #85, .T. ) ;
#234 = APPROVAL ( #235, 'UNSPECIFIED' ) ;
#235 = APPROVAL_STATUS ( 'not_yet_approved' ) ;
#236 = DATE_AND_TIME ( #18, #203 ) ;
#237 = EDGE_LOOP ( 'NONE', ( #233, #150, #50, #32 ) ) ;
ENDSEC;
END-ISO-10303-21;
