ISO-10303-21;
HEADER;
FILE_DESCRIPTION (( 'STEP AP203' ),
    '1' );
FILE_NAME ('Web Model 43367_15993.step',
    '2020-10-21T18:20:56',
    ( '' ),
    ( '' ),
    'SwSTEP 2.0',
    'SolidWorks 2018',
    '' );
FILE_SCHEMA (( 'CONFIG_CONTROL_DESIGN' ));
ENDSEC;

DATA;
#1 = CIRCLE ( 'NONE', #27, 7.500000000000000000 ) ;
#2 = LOCAL_TIME ( 14, 20, 56.00000000000000000, #94 ) ;
#3 = ORIENTED_EDGE ( 'NONE', *, *, #46, .T. ) ;
#4 = EDGE_CURVE ( 'NONE', #78, #173, #64, .T. ) ;
#5 = PRODUCT_DEFINITION_SHAPE ( 'NONE', 'NONE',  #150 ) ;
#6 = ADVANCED_BREP_SHAPE_REPRESENTATION ( 'Web Model 43367_15993', ( #144, #120 ), #87 ) ;
#7 = EDGE_LOOP ( 'NONE', ( #148, #14, #10, #105 ) ) ;
#8 = CARTESIAN_POINT ( 'NONE',  ( 7.500000000000000000, 9.184850993605147944E-16, 0.0000000000000000000 ) ) ;
#9 = DIRECTION ( 'NONE',  ( -0.0000000000000000000, -0.0000000000000000000, -1.000000000000000000 ) ) ;
#10 = ORIENTED_EDGE ( 'NONE', *, *, #53, .T. ) ;
#11 =( NAMED_UNIT ( * ) SI_UNIT ( $, .STERADIAN. ) SOLID_ANGLE_UNIT ( ) );
#12 = APPLICATION_CONTEXT ( 'configuration controlled 3d designs of mechanical parts and assemblies' ) ;
#13 = ORGANIZATION ( 'UNSPECIFIED', 'UNSPECIFIED', '' ) ;
#14 = ORIENTED_EDGE ( 'NONE', *, *, #127, .F. ) ;
#15 = CALENDAR_DATE ( 2020, 21, 10 ) ;
#16 = CC_DESIGN_PERSON_AND_ORGANIZATION_ASSIGNMENT ( #82, #70, ( #150 ) ) ;
#17 = PERSON_AND_ORGANIZATION ( #103, #13 ) ;
#18 = EDGE_LOOP ( 'NONE', ( #112, #3, #90, #96 ) ) ;
#19 = LOCAL_TIME ( 14, 20, 56.00000000000000000, #153 ) ;
#20 = DIRECTION ( 'NONE',  ( -0.0000000000000000000, -0.0000000000000000000, -1.000000000000000000 ) ) ;
#21 = APPROVAL ( #100, 'UNSPECIFIED' ) ;
#22 = APPROVAL_ROLE ( '' ) ;
#23 = CARTESIAN_POINT ( 'NONE',  ( 0.0000000000000000000, 0.0000000000000000000, 0.0000000000000000000 ) ) ;
#24 = EDGE_LOOP ( 'NONE', ( #72, #59 ) ) ;
#25 = APPROVAL_DATE_TIME ( #142, #141 ) ;
#26 = ADVANCED_FACE ( 'NONE', ( #65 ), #36, .T. ) ;
#27 = AXIS2_PLACEMENT_3D ( 'NONE', #136, #54, #57 ) ;
#28 = CARTESIAN_POINT ( 'NONE',  ( 0.0000000000000000000, 0.0000000000000000000, 0.0000000000000000000 ) ) ;
#29 = VERTEX_POINT ( 'NONE', #124 ) ;
#30 = CARTESIAN_POINT ( 'NONE',  ( 0.0000000000000000000, 0.0000000000000000000, 2.000000000000000000 ) ) ;
#31 = DIRECTION ( 'NONE',  ( -0.0000000000000000000, -0.0000000000000000000, -1.000000000000000000 ) ) ;
#32 = APPROVAL_STATUS ( 'not_yet_approved' ) ;
#33 = CALENDAR_DATE ( 2020, 21, 10 ) ;
#34 = LINE ( 'NONE', #81, #48 ) ;
#35 = ADVANCED_FACE ( 'NONE', ( #60 ), #51, .F. ) ;
#36 = PLANE ( 'NONE',  #163 ) ;
#37 = PERSON_AND_ORGANIZATION ( #103, #13 ) ;
#38 = CARTESIAN_POINT ( 'NONE',  ( 7.500000000000000000, 9.184850993605147944E-16, 2.000000000000000000 ) ) ;
#39 = APPROVAL_PERSON_ORGANIZATION ( #161, #141, #155 ) ;
#40 = DATE_TIME_ROLE ( 'creation_date' ) ;
#41 = APPLICATION_CONTEXT ( 'configuration controlled 3d designs of mechanical parts and assemblies' ) ;
#42 = PERSON_AND_ORGANIZATION ( #103, #13 ) ;
#43 = CYLINDRICAL_SURFACE ( 'NONE', #152, 7.500000000000000000 ) ;
#44 = DIRECTION ( 'NONE',  ( 1.000000000000000000, 0.0000000000000000000, 0.0000000000000000000 ) ) ;
#45 = COORDINATED_UNIVERSAL_TIME_OFFSET ( 5, 0, .BEHIND. ) ;
#46 = EDGE_CURVE ( 'NONE', #78, #74, #50, .T. ) ;
#47 = APPROVAL_DATE_TIME ( #128, #92 ) ;
#48 = VECTOR ( 'NONE', #66, 1000.000000000000000 ) ;
#49 = UNCERTAINTY_MEASURE_WITH_UNIT (LENGTH_MEASURE( 1.000000000000000082E-05 ), #58, 'distance_accuracy_value', 'NONE');
#50 = LINE ( 'NONE', #38, #101 ) ;
#51 = PLANE ( 'NONE',  #62 ) ;
#52 = CARTESIAN_POINT ( 'NONE',  ( 7.500000000000000000, 9.184850993605147944E-16, 2.000000000000000000 ) ) ;
#53 = EDGE_CURVE ( 'NONE', #173, #29, #34, .T. ) ;
#54 = DIRECTION ( 'NONE',  ( 0.0000000000000000000, 0.0000000000000000000, 1.000000000000000000 ) ) ;
#55 = COORDINATED_UNIVERSAL_TIME_OFFSET ( 5, 0, .BEHIND. ) ;
#56 = CARTESIAN_POINT ( 'NONE',  ( -7.500000000000000000, 0.0000000000000000000, 2.000000000000000000 ) ) ;
#57 = DIRECTION ( 'NONE',  ( 1.000000000000000000, 0.0000000000000000000, 0.0000000000000000000 ) ) ;
#58 =( LENGTH_UNIT ( ) NAMED_UNIT ( * ) SI_UNIT ( .MILLI., .METRE. ) );
#59 = ORIENTED_EDGE ( 'NONE', *, *, #4, .T. ) ;
#60 = FACE_OUTER_BOUND ( 'NONE', #145, .T. ) ;
#61 = EDGE_CURVE ( 'NONE', #29, #74, #117, .T. ) ;
#62 = AXIS2_PLACEMENT_3D ( 'NONE', #149, #93, #167 ) ;
#63 = DATE_AND_TIME ( #15, #2 ) ;
#64 = CIRCLE ( 'NONE', #139, 7.500000000000000000 ) ;
#65 = FACE_OUTER_BOUND ( 'NONE', #24, .T. ) ;
#66 = DIRECTION ( 'NONE',  ( -0.0000000000000000000, -0.0000000000000000000, -1.000000000000000000 ) ) ;
#67 = DIRECTION ( 'NONE',  ( 1.000000000000000000, 0.0000000000000000000, 0.0000000000000000000 ) ) ;
#68 = APPROVAL_DATE_TIME ( #164, #21 ) ;
#69 = AXIS2_PLACEMENT_3D ( 'NONE', #28, #125, #84 ) ;
#70 = PERSON_AND_ORGANIZATION_ROLE ( 'creator' ) ;
#71 = SECURITY_CLASSIFICATION_LEVEL ( 'unclassified' ) ;
#72 = ORIENTED_EDGE ( 'NONE', *, *, #127, .T. ) ;
#73 = AXIS2_PLACEMENT_3D ( 'NONE', #30, #31, #138 ) ;
#74 = VERTEX_POINT ( 'NONE', #8 ) ;
#75 = DESIGN_CONTEXT ( 'detailed design', #12, 'design' ) ;
#76 = PRODUCT ( 'Web Model 43367_15993', 'Web Model 43367_15993', '', ( #134 ) ) ;
#77 = COORDINATED_UNIVERSAL_TIME_OFFSET ( 5, 0, .BEHIND. ) ;
#78 = VERTEX_POINT ( 'NONE', #52 ) ;
#79 = PERSON_AND_ORGANIZATION ( #103, #13 ) ;
#80 = CC_DESIGN_DATE_AND_TIME_ASSIGNMENT ( #102, #40, ( #150 ) ) ;
#81 = CARTESIAN_POINT ( 'NONE',  ( -7.500000000000000000, 0.0000000000000000000, 2.000000000000000000 ) ) ;
#82 = PERSON_AND_ORGANIZATION ( #103, #13 ) ;
#83 = AXIS2_PLACEMENT_3D ( 'NONE', #154, #95, #85 ) ;
#84 = DIRECTION ( 'NONE',  ( 1.000000000000000000, 0.0000000000000000000, 0.0000000000000000000 ) ) ;
#85 = DIRECTION ( 'NONE',  ( 1.000000000000000000, 0.0000000000000000000, 0.0000000000000000000 ) ) ;
#86 = LOCAL_TIME ( 14, 20, 56.00000000000000000, #55 ) ;
#87 =( GEOMETRIC_REPRESENTATION_CONTEXT ( 3 ) GLOBAL_UNCERTAINTY_ASSIGNED_CONTEXT ( ( #49 ) ) GLOBAL_UNIT_ASSIGNED_CONTEXT ( ( #58, #88, #11 ) ) REPRESENTATION_CONTEXT ( 'NONE', 'WORKASPACE' ) );
#88 =( NAMED_UNIT ( * ) PLANE_ANGLE_UNIT ( ) SI_UNIT ( $, .RADIAN. ) );
#89 = CC_DESIGN_APPROVAL ( #21, ( #113 ) ) ;
#90 = ORIENTED_EDGE ( 'NONE', *, *, #169, .T. ) ;
#91 = ADVANCED_FACE ( 'NONE', ( #170 ), #43, .T. ) ;
#92 = APPROVAL ( #32, 'UNSPECIFIED' ) ;
#93 = DIRECTION ( 'NONE',  ( 0.0000000000000000000, 0.0000000000000000000, 1.000000000000000000 ) ) ;
#94 = COORDINATED_UNIVERSAL_TIME_OFFSET ( 5, 0, .BEHIND. ) ;
#95 = DIRECTION ( 'NONE',  ( 0.0000000000000000000, 0.0000000000000000000, 1.000000000000000000 ) ) ;
#96 = ORIENTED_EDGE ( 'NONE', *, *, #53, .F. ) ;
#97 = CC_DESIGN_PERSON_AND_ORGANIZATION_ASSIGNMENT ( #42, #172, ( #113 ) ) ;
#98 = APPROVAL_STATUS ( 'not_yet_approved' ) ;
#99 = DIRECTION ( 'NONE',  ( 0.0000000000000000000, 0.0000000000000000000, 1.000000000000000000 ) ) ;
#100 = APPROVAL_STATUS ( 'not_yet_approved' ) ;
#101 = VECTOR ( 'NONE', #20, 1000.000000000000000 ) ;
#102 = DATE_AND_TIME ( #118, #86 ) ;
#103 = PERSON ( 'UNSPECIFIED', 'UNSPECIFIED', 'UNSPECIFIED', ('UNSPECIFIED'), ('UNSPECIFIED'), ('UNSPECIFIED') ) ;
#104 = CC_DESIGN_PERSON_AND_ORGANIZATION_ASSIGNMENT ( #37, #171, ( #113 ) ) ;
#105 = ORIENTED_EDGE ( 'NONE', *, *, #61, .T. ) ;
#106 = CC_DESIGN_PERSON_AND_ORGANIZATION_ASSIGNMENT ( #17, #126, ( #123 ) ) ;
#107 = CLOSED_SHELL ( 'NONE', ( #119, #91, #26, #35 ) ) ;
#108 = CARTESIAN_POINT ( 'NONE',  ( 0.0000000000000000000, 0.0000000000000000000, 2.000000000000000000 ) ) ;
#109 = CALENDAR_DATE ( 2020, 21, 10 ) ;
#110 = CARTESIAN_POINT ( 'NONE',  ( 0.0000000000000000000, 0.0000000000000000000, 2.000000000000000000 ) ) ;
#111 = DATE_TIME_ROLE ( 'classification_date' ) ;
#112 = ORIENTED_EDGE ( 'NONE', *, *, #4, .F. ) ;
#113 = PRODUCT_DEFINITION_FORMATION_WITH_SPECIFIED_SOURCE ( 'ANY', '', #76, .NOT_KNOWN. ) ;
#114 = PERSON_AND_ORGANIZATION_ROLE ( 'design_owner' ) ;
#115 = LOCAL_TIME ( 14, 20, 56.00000000000000000, #45 ) ;
#116 = CC_DESIGN_DATE_AND_TIME_ASSIGNMENT ( #63, #111, ( #123 ) ) ;
#117 = CIRCLE ( 'NONE', #69, 7.500000000000000000 ) ;
#118 = CALENDAR_DATE ( 2020, 21, 10 ) ;
#119 = ADVANCED_FACE ( 'NONE', ( #135 ), #129, .T. ) ;
#120 = AXIS2_PLACEMENT_3D ( 'NONE', #23, #99, #44 ) ;
#121 = ORIENTED_EDGE ( 'NONE', *, *, #169, .F. ) ;
#122 = DIRECTION ( 'NONE',  ( 0.0000000000000000000, 0.0000000000000000000, 1.000000000000000000 ) ) ;
#123 = SECURITY_CLASSIFICATION ( '', '', #71 ) ;
#124 = CARTESIAN_POINT ( 'NONE',  ( -7.500000000000000000, 0.0000000000000000000, 0.0000000000000000000 ) ) ;
#125 = DIRECTION ( 'NONE',  ( 0.0000000000000000000, 0.0000000000000000000, 1.000000000000000000 ) ) ;
#126 = PERSON_AND_ORGANIZATION_ROLE ( 'classification_officer' ) ;
#127 = EDGE_CURVE ( 'NONE', #173, #78, #1, .T. ) ;
#128 = DATE_AND_TIME ( #159, #19 ) ;
#129 = CYLINDRICAL_SURFACE ( 'NONE', #73, 7.500000000000000000 ) ;
#130 = APPROVAL_PERSON_ORGANIZATION ( #174, #21, #140 ) ;
#131 = CC_DESIGN_APPROVAL ( #141, ( #123 ) ) ;
#132 = DIRECTION ( 'NONE',  ( 0.0000000000000000000, 0.0000000000000000000, 1.000000000000000000 ) ) ;
#133 = PERSON_AND_ORGANIZATION ( #103, #13 ) ;
#134 = MECHANICAL_CONTEXT ( 'NONE', #41, 'mechanical' ) ;
#135 = FACE_OUTER_BOUND ( 'NONE', #18, .T. ) ;
#136 = CARTESIAN_POINT ( 'NONE',  ( 0.0000000000000000000, 0.0000000000000000000, 2.000000000000000000 ) ) ;
#137 = APPLICATION_PROTOCOL_DEFINITION ( 'international standard', 'config_control_design', 1994, #12 ) ;
#138 = DIRECTION ( 'NONE',  ( -1.000000000000000000, 0.0000000000000000000, 0.0000000000000000000 ) ) ;
#139 = AXIS2_PLACEMENT_3D ( 'NONE', #110, #122, #67 ) ;
#140 = APPROVAL_ROLE ( '' ) ;
#141 = APPROVAL ( #98, 'UNSPECIFIED' ) ;
#142 = DATE_AND_TIME ( #109, #146 ) ;
#143 = CC_DESIGN_APPROVAL ( #92, ( #150 ) ) ;
#144 = MANIFOLD_SOLID_BREP ( 'Boss-Extrude1', #107 ) ;
#145 = EDGE_LOOP ( 'NONE', ( #162, #121 ) ) ;
#146 = LOCAL_TIME ( 14, 20, 56.00000000000000000, #77 ) ;
#147 = APPROVAL_PERSON_ORGANIZATION ( #133, #92, #22 ) ;
#148 = ORIENTED_EDGE ( 'NONE', *, *, #46, .F. ) ;
#149 = CARTESIAN_POINT ( 'NONE',  ( 0.0000000000000000000, 0.0000000000000000000, 0.0000000000000000000 ) ) ;
#150 = PRODUCT_DEFINITION ( 'UNKNOWN', '', #113, #75 ) ;
#151 = DIRECTION ( 'NONE',  ( 1.000000000000000000, 0.0000000000000000000, -0.0000000000000000000 ) ) ;
#152 = AXIS2_PLACEMENT_3D ( 'NONE', #108, #9, #158 ) ;
#153 = COORDINATED_UNIVERSAL_TIME_OFFSET ( 5, 0, .BEHIND. ) ;
#154 = CARTESIAN_POINT ( 'NONE',  ( 0.0000000000000000000, 0.0000000000000000000, 0.0000000000000000000 ) ) ;
#155 = APPROVAL_ROLE ( '' ) ;
#156 = APPLICATION_PROTOCOL_DEFINITION ( 'international standard', 'config_control_design', 1994, #41 ) ;
#157 = CIRCLE ( 'NONE', #83, 7.500000000000000000 ) ;
#158 = DIRECTION ( 'NONE',  ( -1.000000000000000000, 0.0000000000000000000, 0.0000000000000000000 ) ) ;
#159 = CALENDAR_DATE ( 2020, 21, 10 ) ;
#160 = CC_DESIGN_PERSON_AND_ORGANIZATION_ASSIGNMENT ( #79, #114, ( #76 ) ) ;
#161 = PERSON_AND_ORGANIZATION ( #103, #13 ) ;
#162 = ORIENTED_EDGE ( 'NONE', *, *, #61, .F. ) ;
#163 = AXIS2_PLACEMENT_3D ( 'NONE', #168, #132, #151 ) ;
#164 = DATE_AND_TIME ( #33, #115 ) ;
#165 = CC_DESIGN_SECURITY_CLASSIFICATION ( #123, ( #113 ) ) ;
#166 = SHAPE_DEFINITION_REPRESENTATION ( #5, #6 ) ;
#167 = DIRECTION ( 'NONE',  ( 1.000000000000000000, 0.0000000000000000000, -0.0000000000000000000 ) ) ;
#168 = CARTESIAN_POINT ( 'NONE',  ( 0.0000000000000000000, 0.0000000000000000000, 2.000000000000000000 ) ) ;
#169 = EDGE_CURVE ( 'NONE', #74, #29, #157, .T. ) ;
#170 = FACE_OUTER_BOUND ( 'NONE', #7, .T. ) ;
#171 = PERSON_AND_ORGANIZATION_ROLE ( 'design_supplier' ) ;
#172 = PERSON_AND_ORGANIZATION_ROLE ( 'creator' ) ;
#173 = VERTEX_POINT ( 'NONE', #56 ) ;
#174 = PERSON_AND_ORGANIZATION ( #103, #13 ) ;
#175 = PRODUCT_RELATED_PRODUCT_CATEGORY ( 'detail', '', ( #76 ) ) ;
ENDSEC;
END-ISO-10303-21;
