ISO-10303-21;
HEADER;
FILE_DESCRIPTION (( 'STEP AP203' ),
    '1' );
FILE_NAME ('Web Model 47023_48401.step',
    '2017-03-01T18:54:20',
    ( '' ),
    ( '' ),
    'SwSTEP 2.0',
    'SolidWorks 2016',
    '' );
FILE_SCHEMA (( 'CONFIG_CONTROL_DESIGN' ));
ENDSEC;

DATA;
#1 = DIRECTION ( 'NONE',  ( 1.000000000000000000, 0.0000000000000000000, 0.0000000000000000000 ) ) ;
#2 = PRODUCT_DEFINITION_FORMATION_WITH_SPECIFIED_SOURCE ( 'ANY', '', #42, .NOT_KNOWN. ) ;
#3 = CARTESIAN_POINT ( 'NONE',  ( 0.0000000000000000000, 25.00000000000000000, 3.000000000000000000 ) ) ;
#4 = ORIENTED_EDGE ( 'NONE', *, *, #10, .F. ) ;
#5 = VECTOR ( 'NONE', #208, 1000.000000000000000 ) ;
#6 = LINE ( 'NONE', #128, #63 ) ;
#7 = DIRECTION ( 'NONE',  ( -0.0000000000000000000, -1.000000000000000000, -0.0000000000000000000 ) ) ;
#8 = LINE ( 'NONE', #32, #165 ) ;
#9 = ORIENTED_EDGE ( 'NONE', *, *, #37, .T. ) ;
#10 = EDGE_CURVE ( 'NONE', #68, #47, #126, .T. ) ;
#11 = ORIENTED_EDGE ( 'NONE', *, *, #158, .F. ) ;
#12 = APPROVAL_STATUS ( 'not_yet_approved' ) ;
#13 = DIRECTION ( 'NONE',  ( -0.0000000000000000000, -0.0000000000000000000, -1.000000000000000000 ) ) ;
#14 = DATE_AND_TIME ( #180, #39 ) ;
#15 = CC_DESIGN_APPROVAL ( #41, ( #101 ) ) ;
#16 = VECTOR ( 'NONE', #53, 1000.000000000000000 ) ;
#17 = CARTESIAN_POINT ( 'NONE',  ( 0.0000000000000000000, 0.0000000000000000000, 3.000000000000000000 ) ) ;
#18 = CARTESIAN_POINT ( 'NONE',  ( 38.00000000000000000, 25.00000000000000000, 3.000000000000000000 ) ) ;
#19 = DIRECTION ( 'NONE',  ( 1.000000000000000000, 0.0000000000000000000, 0.0000000000000000000 ) ) ;
#20 = PERSON_AND_ORGANIZATION_ROLE ( 'design_supplier' ) ;
#21 = APPROVAL_DATE_TIME ( #148, #41 ) ;
#22 = EDGE_LOOP ( 'NONE', ( #195, #138, #11, #111 ) ) ;
#23 = EDGE_CURVE ( 'NONE', #86, #118, #163, .T. ) ;
#24 = SECURITY_CLASSIFICATION_LEVEL ( 'unclassified' ) ;
#25 = CALENDAR_DATE ( 2017, 1, 3 ) ;
#26 = VECTOR ( 'NONE', #1, 1000.000000000000000 ) ;
#27 = DIRECTION ( 'NONE',  ( 0.0000000000000000000, 0.0000000000000000000, 1.000000000000000000 ) ) ;
#28 = APPROVAL_ROLE ( '' ) ;
#29 = ORIENTED_EDGE ( 'NONE', *, *, #140, .T. ) ;
#30 = PERSON_AND_ORGANIZATION ( #211, #220 ) ;
#31 = VECTOR ( 'NONE', #83, 1000.000000000000000 ) ;
#32 = CARTESIAN_POINT ( 'NONE',  ( 38.00000000000000000, 0.0000000000000000000, 3.000000000000000000 ) ) ;
#33 = PERSON_AND_ORGANIZATION ( #211, #220 ) ;
#34 = COORDINATED_UNIVERSAL_TIME_OFFSET ( 5, 0, .BEHIND. ) ;
#35 = COORDINATED_UNIVERSAL_TIME_OFFSET ( 5, 0, .BEHIND. ) ;
#36 = APPLICATION_CONTEXT ( 'configuration controlled 3d designs of mechanical parts and assemblies' ) ;
#37 = EDGE_CURVE ( 'NONE', #109, #86, #94, .T. ) ;
#38 = APPROVAL_PERSON_ORGANIZATION ( #33, #41, #28 ) ;
#39 = LOCAL_TIME ( 13, 54, 20.00000000000000000, #133 ) ;
#40 = CARTESIAN_POINT ( 'NONE',  ( 0.0000000000000000000, 25.00000000000000000, 3.000000000000000000 ) ) ;
#41 = APPROVAL ( #67, 'UNSPECIFIED' ) ;
#42 = PRODUCT ( 'Web Model 47023_48401', 'Web Model 47023_48401', '', ( #182 ) ) ;
#43 = LINE ( 'NONE', #197, #5 ) ;
#44 = DIRECTION ( 'NONE',  ( 0.0000000000000000000, 0.0000000000000000000, -1.000000000000000000 ) ) ;
#45 = PLANE ( 'NONE',  #181 ) ;
#46 = LINE ( 'NONE', #166, #97 ) ;
#47 = VERTEX_POINT ( 'NONE', #102 ) ;
#48 = APPROVAL_PERSON_ORGANIZATION ( #199, #212, #189 ) ;
#49 = CC_DESIGN_APPROVAL ( #93, ( #147 ) ) ;
#50 = VECTOR ( 'NONE', #137, 1000.000000000000000 ) ;
#51 = LINE ( 'NONE', #207, #16 ) ;
#52 = CARTESIAN_POINT ( 'NONE',  ( 0.0000000000000000000, 25.00000000000000000, 0.0000000000000000000 ) ) ;
#53 = DIRECTION ( 'NONE',  ( -0.0000000000000000000, -0.0000000000000000000, -1.000000000000000000 ) ) ;
#54 = APPLICATION_PROTOCOL_DEFINITION ( 'international standard', 'config_control_design', 1994, #36 ) ;
#55 = ORIENTED_EDGE ( 'NONE', *, *, #104, .T. ) ;
#56 = PERSON_AND_ORGANIZATION ( #211, #220 ) ;
#57 = CARTESIAN_POINT ( 'NONE',  ( 38.00000000000000000, 0.0000000000000000000, 3.000000000000000000 ) ) ;
#58 = ORIENTED_EDGE ( 'NONE', *, *, #201, .T. ) ;
#59 = VERTEX_POINT ( 'NONE', #156 ) ;
#60 = CARTESIAN_POINT ( 'NONE',  ( 0.0000000000000000000, 0.0000000000000000000, 0.0000000000000000000 ) ) ;
#61 = CARTESIAN_POINT ( 'NONE',  ( 0.0000000000000000000, 25.00000000000000000, 3.000000000000000000 ) ) ;
#62 = DATE_AND_TIME ( #25, #221 ) ;
#63 = VECTOR ( 'NONE', #214, 1000.000000000000000 ) ;
#64 = PLANE ( 'NONE',  #96 ) ;
#65 = MANIFOLD_SOLID_BREP ( 'Extrude1', #82 ) ;
#66 = DATE_AND_TIME ( #183, #179 ) ;
#67 = APPROVAL_STATUS ( 'not_yet_approved' ) ;
#68 = VERTEX_POINT ( 'NONE', #52 ) ;
#69 = EDGE_LOOP ( 'NONE', ( #4, #191, #72, #130 ) ) ;
#70 = LINE ( 'NONE', #162, #50 ) ;
#71 = PRODUCT_RELATED_PRODUCT_CATEGORY ( 'detail', '', ( #42 ) ) ;
#72 = ORIENTED_EDGE ( 'NONE', *, *, #104, .F. ) ;
#73 = VERTEX_POINT ( 'NONE', #40 ) ;
#74 = EDGE_CURVE ( 'NONE', #86, #73, #43, .T. ) ;
#75 = DIRECTION ( 'NONE',  ( -1.000000000000000000, 0.0000000000000000000, -0.0000000000000000000 ) ) ;
#76 = CARTESIAN_POINT ( 'NONE',  ( 0.0000000000000000000, 0.0000000000000000000, 3.000000000000000000 ) ) ;
#77 =( NAMED_UNIT ( * ) PLANE_ANGLE_UNIT ( ) SI_UNIT ( $, .RADIAN. ) );
#78 = ORIENTED_EDGE ( 'NONE', *, *, #23, .T. ) ;
#79 = VERTEX_POINT ( 'NONE', #17 ) ;
#80 = COORDINATED_UNIVERSAL_TIME_OFFSET ( 5, 0, .BEHIND. ) ;
#81 = DIRECTION ( 'NONE',  ( 0.0000000000000000000, 0.0000000000000000000, -1.000000000000000000 ) ) ;
#82 = CLOSED_SHELL ( 'NONE', ( #113, #227, #98, #232, #151, #99 ) ) ;
#83 = DIRECTION ( 'NONE',  ( -1.000000000000000000, -0.0000000000000000000, -0.0000000000000000000 ) ) ;
#84 = ORIENTED_EDGE ( 'NONE', *, *, #23, .F. ) ;
#85 = CC_DESIGN_APPROVAL ( #212, ( #2 ) ) ;
#86 = VERTEX_POINT ( 'NONE', #18 ) ;
#87 = EDGE_CURVE ( 'NONE', #47, #59, #171, .T. ) ;
#88 = PERSON_AND_ORGANIZATION ( #211, #220 ) ;
#89 = PERSON_AND_ORGANIZATION_ROLE ( 'creator' ) ;
#90 = ORIENTED_EDGE ( 'NONE', *, *, #95, .F. ) ;
#91 = DIRECTION ( 'NONE',  ( 0.0000000000000000000, 1.000000000000000000, 0.0000000000000000000 ) ) ;
#92 =( NAMED_UNIT ( * ) SI_UNIT ( $, .STERADIAN. ) SOLID_ANGLE_UNIT ( ) );
#93 = APPROVAL ( #132, 'UNSPECIFIED' ) ;
#94 = LINE ( 'NONE', #168, #215 ) ;
#95 = EDGE_CURVE ( 'NONE', #109, #59, #8, .T. ) ;
#96 = AXIS2_PLACEMENT_3D ( 'NONE', #57, #172, #164 ) ;
#97 = VECTOR ( 'NONE', #13, 1000.000000000000000 ) ;
#98 = ADVANCED_FACE ( 'NONE', ( #193 ), #64, .F. ) ;
#99 = ADVANCED_FACE ( 'NONE', ( #107 ), #218, .T. ) ;
#100 =( LENGTH_UNIT ( ) NAMED_UNIT ( * ) SI_UNIT ( .MILLI., .METRE. ) );
#101 = SECURITY_CLASSIFICATION ( '', '', #24 ) ;
#102 = CARTESIAN_POINT ( 'NONE',  ( 0.0000000000000000000, 0.0000000000000000000, 0.0000000000000000000 ) ) ;
#103 = CC_DESIGN_PERSON_AND_ORGANIZATION_ASSIGNMENT ( #56, #122, ( #101 ) ) ;
#104 = EDGE_CURVE ( 'NONE', #59, #118, #6, .T. ) ;
#105 = APPROVAL_DATE_TIME ( #62, #212 ) ;
#106 = EDGE_CURVE ( 'NONE', #79, #47, #51, .T. ) ;
#107 = FACE_OUTER_BOUND ( 'NONE', #69, .T. ) ;
#108 = PERSON_AND_ORGANIZATION_ROLE ( 'creator' ) ;
#109 = VERTEX_POINT ( 'NONE', #188 ) ;
#110 = CARTESIAN_POINT ( 'NONE',  ( 0.0000000000000000000, 0.0000000000000000000, 3.000000000000000000 ) ) ;
#111 = ORIENTED_EDGE ( 'NONE', *, *, #150, .T. ) ;
#112 = CC_DESIGN_PERSON_AND_ORGANIZATION_ASSIGNMENT ( #228, #226, ( #42 ) ) ;
#113 = ADVANCED_FACE ( 'NONE', ( #176 ), #170, .F. ) ;
#114 = PERSON_AND_ORGANIZATION ( #211, #220 ) ;
#115 = CARTESIAN_POINT ( 'NONE',  ( 38.00000000000000000, 25.00000000000000000, 0.0000000000000000000 ) ) ;
#116 = AXIS2_PLACEMENT_3D ( 'NONE', #219, #91, #159 ) ;
#117 = LOCAL_TIME ( 13, 54, 20.00000000000000000, #34 ) ;
#118 = VERTEX_POINT ( 'NONE', #115 ) ;
#119 = PLANE ( 'NONE',  #116 ) ;
#120 = APPLICATION_CONTEXT ( 'configuration controlled 3d designs of mechanical parts and assemblies' ) ;
#121 = DATE_TIME_ROLE ( 'creation_date' ) ;
#122 = PERSON_AND_ORGANIZATION_ROLE ( 'classification_officer' ) ;
#123 = AXIS2_PLACEMENT_3D ( 'NONE', #61, #236, #178 ) ;
#124 = AXIS2_PLACEMENT_3D ( 'NONE', #185, #44, #75 ) ;
#125 = PLANE ( 'NONE',  #123 ) ;
#126 = LINE ( 'NONE', #60, #143 ) ;
#127 = COORDINATED_UNIVERSAL_TIME_OFFSET ( 5, 0, .BEHIND. ) ;
#128 = CARTESIAN_POINT ( 'NONE',  ( 38.00000000000000000, 0.0000000000000000000, 0.0000000000000000000 ) ) ;
#129 = ORIENTED_EDGE ( 'NONE', *, *, #87, .T. ) ;
#130 = ORIENTED_EDGE ( 'NONE', *, *, #87, .F. ) ;
#131 = CC_DESIGN_PERSON_AND_ORGANIZATION_ASSIGNMENT ( #114, #20, ( #2 ) ) ;
#132 = APPROVAL_STATUS ( 'not_yet_approved' ) ;
#133 = COORDINATED_UNIVERSAL_TIME_OFFSET ( 5, 0, .BEHIND. ) ;
#134 = APPLICATION_PROTOCOL_DEFINITION ( 'international standard', 'config_control_design', 1994, #120 ) ;
#135 = DIRECTION ( 'NONE',  ( 0.0000000000000000000, 0.0000000000000000000, -1.000000000000000000 ) ) ;
#136 = DATE_AND_TIME ( #177, #117 ) ;
#137 = DIRECTION ( 'NONE',  ( 1.000000000000000000, 0.0000000000000000000, 0.0000000000000000000 ) ) ;
#138 = ORIENTED_EDGE ( 'NONE', *, *, #106, .F. ) ;
#139 = DIRECTION ( 'NONE',  ( -0.0000000000000000000, -1.000000000000000000, -0.0000000000000000000 ) ) ;
#140 = EDGE_CURVE ( 'NONE', #118, #68, #145, .T. ) ;
#141 = ORIENTED_EDGE ( 'NONE', *, *, #150, .F. ) ;
#142 = ORIENTED_EDGE ( 'NONE', *, *, #37, .F. ) ;
#143 = VECTOR ( 'NONE', #7, 1000.000000000000000 ) ;
#144 = CALENDAR_DATE ( 2017, 1, 3 ) ;
#145 = LINE ( 'NONE', #152, #31 ) ;
#146 = CARTESIAN_POINT ( 'NONE',  ( 0.0000000000000000000, 0.0000000000000000000, 0.0000000000000000000 ) ) ;
#147 = PRODUCT_DEFINITION ( 'UNKNOWN', '', #2, #198 ) ;
#148 = DATE_AND_TIME ( #144, #153 ) ;
#149 = APPROVAL_DATE_TIME ( #136, #93 ) ;
#150 = EDGE_CURVE ( 'NONE', #73, #68, #46, .T. ) ;
#151 = ADVANCED_FACE ( 'NONE', ( #205 ), #45, .F. ) ;
#152 = CARTESIAN_POINT ( 'NONE',  ( 0.0000000000000000000, 25.00000000000000000, 0.0000000000000000000 ) ) ;
#153 = LOCAL_TIME ( 13, 54, 20.00000000000000000, #35 ) ;
#154 = DATE_TIME_ROLE ( 'classification_date' ) ;
#155 = SHAPE_DEFINITION_REPRESENTATION ( #192, #233 ) ;
#156 = CARTESIAN_POINT ( 'NONE',  ( 38.00000000000000000, 0.0000000000000000000, 0.0000000000000000000 ) ) ;
#157 = CC_DESIGN_PERSON_AND_ORGANIZATION_ASSIGNMENT ( #88, #89, ( #147 ) ) ;
#158 = EDGE_CURVE ( 'NONE', #73, #79, #216, .T. ) ;
#159 = DIRECTION ( 'NONE',  ( 0.0000000000000000000, -0.0000000000000000000, 1.000000000000000000 ) ) ;
#160 = VECTOR ( 'NONE', #139, 1000.000000000000000 ) ;
#161 = CC_DESIGN_DATE_AND_TIME_ASSIGNMENT ( #66, #121, ( #147 ) ) ;
#162 = CARTESIAN_POINT ( 'NONE',  ( 0.0000000000000000000, 0.0000000000000000000, 3.000000000000000000 ) ) ;
#163 = LINE ( 'NONE', #167, #209 ) ;
#164 = DIRECTION ( 'NONE',  ( 0.0000000000000000000, 0.0000000000000000000, 1.000000000000000000 ) ) ;
#165 = VECTOR ( 'NONE', #237, 1000.000000000000000 ) ;
#166 = CARTESIAN_POINT ( 'NONE',  ( 0.0000000000000000000, 25.00000000000000000, 3.000000000000000000 ) ) ;
#167 = CARTESIAN_POINT ( 'NONE',  ( 38.00000000000000000, 25.00000000000000000, 3.000000000000000000 ) ) ;
#168 = CARTESIAN_POINT ( 'NONE',  ( 38.00000000000000000, 0.0000000000000000000, 3.000000000000000000 ) ) ;
#169 = ORIENTED_EDGE ( 'NONE', *, *, #74, .F. ) ;
#170 = PLANE ( 'NONE',  #196 ) ;
#171 = LINE ( 'NONE', #202, #26 ) ;
#172 = DIRECTION ( 'NONE',  ( -1.000000000000000000, 0.0000000000000000000, 0.0000000000000000000 ) ) ;
#173 = PERSON_AND_ORGANIZATION ( #211, #220 ) ;
#174 = EDGE_LOOP ( 'NONE', ( #29, #141, #169, #78 ) ) ;
#175 = DIRECTION ( 'NONE',  ( 0.0000000000000000000, 1.000000000000000000, 0.0000000000000000000 ) ) ;
#176 = FACE_OUTER_BOUND ( 'NONE', #22, .T. ) ;
#177 = CALENDAR_DATE ( 2017, 1, 3 ) ;
#178 = DIRECTION ( 'NONE',  ( 0.0000000000000000000, -0.0000000000000000000, -1.000000000000000000 ) ) ;
#179 = LOCAL_TIME ( 13, 54, 20.00000000000000000, #127 ) ;
#180 = CALENDAR_DATE ( 2017, 1, 3 ) ;
#181 = AXIS2_PLACEMENT_3D ( 'NONE', #3, #135, #223 ) ;
#182 = MECHANICAL_CONTEXT ( 'NONE', #120, 'mechanical' ) ;
#183 = CALENDAR_DATE ( 2017, 1, 3 ) ;
#184 = APPROVAL_PERSON_ORGANIZATION ( #30, #93, #200 ) ;
#185 = CARTESIAN_POINT ( 'NONE',  ( 0.0000000000000000000, 25.00000000000000000, 0.0000000000000000000 ) ) ;
#186 = FACE_OUTER_BOUND ( 'NONE', #229, .T. ) ;
#187 = AXIS2_PLACEMENT_3D ( 'NONE', #146, #27, #19 ) ;
#188 = CARTESIAN_POINT ( 'NONE',  ( 38.00000000000000000, 0.0000000000000000000, 3.000000000000000000 ) ) ;
#189 = APPROVAL_ROLE ( '' ) ;
#190 = ORIENTED_EDGE ( 'NONE', *, *, #74, .T. ) ;
#191 = ORIENTED_EDGE ( 'NONE', *, *, #140, .F. ) ;
#192 = PRODUCT_DEFINITION_SHAPE ( 'NONE', 'NONE',  #147 ) ;
#193 = FACE_OUTER_BOUND ( 'NONE', #217, .T. ) ;
#194 = FACE_OUTER_BOUND ( 'NONE', #174, .T. ) ;
#195 = ORIENTED_EDGE ( 'NONE', *, *, #10, .T. ) ;
#196 = AXIS2_PLACEMENT_3D ( 'NONE', #76, #203, #81 ) ;
#197 = CARTESIAN_POINT ( 'NONE',  ( 0.0000000000000000000, 25.00000000000000000, 3.000000000000000000 ) ) ;
#198 = DESIGN_CONTEXT ( 'detailed design', #36, 'design' ) ;
#199 = PERSON_AND_ORGANIZATION ( #211, #220 ) ;
#200 = APPROVAL_ROLE ( '' ) ;
#201 = EDGE_CURVE ( 'NONE', #79, #109, #70, .T. ) ;
#202 = CARTESIAN_POINT ( 'NONE',  ( 0.0000000000000000000, 0.0000000000000000000, 0.0000000000000000000 ) ) ;
#203 = DIRECTION ( 'NONE',  ( 1.000000000000000000, 0.0000000000000000000, 0.0000000000000000000 ) ) ;
#204 = ORIENTED_EDGE ( 'NONE', *, *, #201, .F. ) ;
#205 = FACE_OUTER_BOUND ( 'NONE', #234, .T. ) ;
#206 = ORIENTED_EDGE ( 'NONE', *, *, #158, .T. ) ;
#207 = CARTESIAN_POINT ( 'NONE',  ( 0.0000000000000000000, 0.0000000000000000000, 3.000000000000000000 ) ) ;
#208 = DIRECTION ( 'NONE',  ( -1.000000000000000000, -0.0000000000000000000, -0.0000000000000000000 ) ) ;
#209 = VECTOR ( 'NONE', #210, 1000.000000000000000 ) ;
#210 = DIRECTION ( 'NONE',  ( -0.0000000000000000000, -0.0000000000000000000, -1.000000000000000000 ) ) ;
#211 = PERSON ( 'UNSPECIFIED', 'UNSPECIFIED', 'UNSPECIFIED', ('UNSPECIFIED'), ('UNSPECIFIED'), ('UNSPECIFIED') ) ;
#212 = APPROVAL ( #12, 'UNSPECIFIED' ) ;
#213 =( GEOMETRIC_REPRESENTATION_CONTEXT ( 3 ) GLOBAL_UNCERTAINTY_ASSIGNED_CONTEXT ( ( #230 ) ) GLOBAL_UNIT_ASSIGNED_CONTEXT ( ( #100, #77, #92 ) ) REPRESENTATION_CONTEXT ( 'NONE', 'WORKASPACE' ) );
#214 = DIRECTION ( 'NONE',  ( 0.0000000000000000000, 1.000000000000000000, 0.0000000000000000000 ) ) ;
#215 = VECTOR ( 'NONE', #175, 1000.000000000000000 ) ;
#216 = LINE ( 'NONE', #110, #160 ) ;
#217 = EDGE_LOOP ( 'NONE', ( #55, #84, #142, #231 ) ) ;
#218 = PLANE ( 'NONE',  #124 ) ;
#219 = CARTESIAN_POINT ( 'NONE',  ( 0.0000000000000000000, 0.0000000000000000000, 3.000000000000000000 ) ) ;
#220 = ORGANIZATION ( 'UNSPECIFIED', 'UNSPECIFIED', '' ) ;
#221 = LOCAL_TIME ( 13, 54, 20.00000000000000000, #80 ) ;
#222 = CC_DESIGN_PERSON_AND_ORGANIZATION_ASSIGNMENT ( #173, #108, ( #2 ) ) ;
#223 = DIRECTION ( 'NONE',  ( -1.000000000000000000, 0.0000000000000000000, -0.0000000000000000000 ) ) ;
#224 = ORIENTED_EDGE ( 'NONE', *, *, #106, .T. ) ;
#225 = CC_DESIGN_DATE_AND_TIME_ASSIGNMENT ( #14, #154, ( #101 ) ) ;
#226 = PERSON_AND_ORGANIZATION_ROLE ( 'design_owner' ) ;
#227 = ADVANCED_FACE ( 'NONE', ( #186 ), #119, .F. ) ;
#228 = PERSON_AND_ORGANIZATION ( #211, #220 ) ;
#229 = EDGE_LOOP ( 'NONE', ( #129, #90, #204, #224 ) ) ;
#230 = UNCERTAINTY_MEASURE_WITH_UNIT (LENGTH_MEASURE( 1.000000000000000100E-005 ), #100, 'distance_accuracy_value', 'NONE');
#231 = ORIENTED_EDGE ( 'NONE', *, *, #95, .T. ) ;
#232 = ADVANCED_FACE ( 'NONE', ( #194 ), #125, .F. ) ;
#233 = ADVANCED_BREP_SHAPE_REPRESENTATION ( 'Web Model 47023_48401', ( #65, #187 ), #213 ) ;
#234 = EDGE_LOOP ( 'NONE', ( #206, #58, #9, #190 ) ) ;
#235 = CC_DESIGN_SECURITY_CLASSIFICATION ( #101, ( #2 ) ) ;
#236 = DIRECTION ( 'NONE',  ( 0.0000000000000000000, -1.000000000000000000, 0.0000000000000000000 ) ) ;
#237 = DIRECTION ( 'NONE',  ( -0.0000000000000000000, -0.0000000000000000000, -1.000000000000000000 ) ) ;
ENDSEC;
END-ISO-10303-21;
