ISO-10303-21;
HEADER;
FILE_DESCRIPTION (( 'STEP AP214' ),
    '1' );
FILE_NAME ('3421-E0W.step',
    '2007-11-08T21:53:10',
    ( ' ' ),
    ( ' ' ),
    'SwSTEP 2.0',
    'SolidWorks 2007',
    '' );
FILE_SCHEMA (( 'AUTOMOTIVE_DESIGN' ));
ENDSEC;

DATA;
#1 =( NAMED_UNIT ( * ) SI_UNIT ( $, .STERADIAN. ) SOLID_ANGLE_UNIT ( ) );
#2 = UNCERTAINTY_MEASURE_WITH_UNIT (LENGTH_MEASURE( 1.000000000000000100E-005 ), #139, 'distance_accuracy_value', 'NONE');
#3 =( GEOMETRIC_REPRESENTATION_CONTEXT ( 3 ) GLOBAL_UNCERTAINTY_ASSIGNED_CONTEXT ( ( #2 ) ) GLOBAL_UNIT_ASSIGNED_CONTEXT ( ( #139, #138, #1 ) ) REPRESENTATION_CONTEXT ( 'NONE', 'WORKASPACE' ) );
#4 = FILL_AREA_STYLE_COLOUR ( '', #5 ) ;
#5 = COLOUR_RGB ( '',0.7529411764705882200, 0.7529411764705882200, 0.7529411764705882200 ) ;
#6 = FACE_OUTER_BOUND ( 'NONE', #47, .T. ) ;
#7 = SURFACE_STYLE_FILL_AREA ( #8 ) ;
#8 = FILL_AREA_STYLE ('',( #4 ) ) ;
#9 = SURFACE_STYLE_USAGE ( .BOTH. , #11 ) ;
#10 = PRESENTATION_STYLE_ASSIGNMENT (( #9 ) ) ;
#11 = SURFACE_SIDE_STYLE ('',( #7 ) ) ;
#12 =( LENGTH_UNIT ( ) NAMED_UNIT ( * ) SI_UNIT ( $, .METRE. ) );
#13 = STYLED_ITEM ( 'NONE', ( #10 ), #46 ) ;
#14 = MECHANICAL_DESIGN_GEOMETRIC_PRESENTATION_REPRESENTATION (  '', ( #13 ), #22 ) ;
#15 = PRESENTATION_LAYER_ASSIGNMENT (  '', '', ( #13 ) ) ;
#16 = LENGTH_MEASURE_WITH_UNIT ( LENGTH_MEASURE( 0.02539999999999999900 ), #12 );
#17 =( CONVERSION_BASED_UNIT ( 'INCH', #16 ) LENGTH_UNIT ( ) NAMED_UNIT ( #18 ) );
#18 = DIMENSIONAL_EXPONENTS ( 1.000000000000000000, 0.0000000000000000000, 0.0000000000000000000, 0.0000000000000000000, 0.0000000000000000000, 0.0000000000000000000, 0.0000000000000000000 ) ;
#19 =( NAMED_UNIT ( * ) PLANE_ANGLE_UNIT ( ) SI_UNIT ( $, .RADIAN. ) );
#20 =( NAMED_UNIT ( * ) SI_UNIT ( $, .STERADIAN. ) SOLID_ANGLE_UNIT ( ) );
#21 = UNCERTAINTY_MEASURE_WITH_UNIT (LENGTH_MEASURE( 1.000000000000000100E-005 ), #17, 'distance_accuracy_value', 'NONE');
#22 =( GEOMETRIC_REPRESENTATION_CONTEXT ( 3 ) GLOBAL_UNCERTAINTY_ASSIGNED_CONTEXT ( ( #21 ) ) GLOBAL_UNIT_ASSIGNED_CONTEXT ( ( #17, #19, #20 ) ) REPRESENTATION_CONTEXT ( 'NONE', 'WORKASPACE' ) );
#23 = VERTEX_POINT ( 'NONE', #55 ) ;
#24 = ORIENTED_EDGE ( 'NONE', *, *, #25, .F. ) ;
#25 = EDGE_CURVE ( 'NONE', #73, #23, #53, .T. ) ;
#26 = ADVANCED_FACE ( 'NONE', ( #54 ), #84, .T. ) ;
#27 = EDGE_LOOP ( 'NONE', ( #28, #60, #62 ) ) ;
#28 = ORIENTED_EDGE ( 'NONE', *, *, #80, .F. ) ;
#29 = EDGE_CURVE ( 'NONE', #30, #31, #137, .T. ) ;
#30 = VERTEX_POINT ( 'NONE', #133 ) ;
#31 = VERTEX_POINT ( 'NONE', #132 ) ;
#32 = ORIENTED_EDGE ( 'NONE', *, *, #33, .T. ) ;
#33 = EDGE_CURVE ( 'NONE', #30, #34, #131, .T. ) ;
#34 = VERTEX_POINT ( 'NONE', #126 ) ;
#35 = ORIENTED_EDGE ( 'NONE', *, *, #36, .F. ) ;
#36 = EDGE_CURVE ( 'NONE', #31, #34, #124, .T. ) ;
#37 = ADVANCED_FACE ( 'NONE', ( #119 ), #160, .T. ) ;
#38 = EDGE_LOOP ( 'NONE', ( #39, #40, #43, #74 ) ) ;
#39 = ORIENTED_EDGE ( 'NONE', *, *, #36, .T. ) ;
#40 = ORIENTED_EDGE ( 'NONE', *, *, #41, .T. ) ;
#41 = EDGE_CURVE ( 'NONE', #34, #42, #161, .T. ) ;
#42 = VERTEX_POINT ( 'NONE', #153 ) ;
#43 = ORIENTED_EDGE ( 'NONE', *, *, #72, .F. ) ;
#44 = ORIENTED_EDGE ( 'NONE', *, *, #29, .F. ) ;
#45 = MANIFOLD_SOLID_BREP ( 'NONE', #59 ) ;
#46 = ADVANCED_FACE ( 'NONE', ( #6 ), #191, .T. ) ;
#47 = EDGE_LOOP ( 'NONE', ( #44, #32, #35 ) ) ;
#48 = FILL_AREA_STYLE_COLOUR ( '', #103 ) ;
#49 = DIRECTION ( 'NONE',  ( -1.000000000000000000, 0.0000000000000000000, 0.0000000000000000000 ) ) ;
#50 = DIRECTION ( 'NONE',  ( 0.0000000000000000000, 0.0000000000000000000, -1.000000000000000000 ) ) ;
#51 = CARTESIAN_POINT ( 'NONE',  ( -26.94659772280302000, 0.02144017688972844200, 0.03367326920033877900 ) ) ;
#52 = AXIS2_PLACEMENT_3D ( 'NONE', #51, #50, #49 ) ;
#53 = CIRCLE ( 'NONE', #52, 27.14566929133857800 ) ;
#54 = FACE_OUTER_BOUND ( 'NONE', #27, .T. ) ;
#55 = CARTESIAN_POINT ( 'NONE',  ( 0.1990715685355650100, 0.02144017688973010000, 0.03367326920033877900 ) ) ;
#56 = ORIENTED_EDGE ( 'NONE', *, *, #33, .F. ) ;
#57 = ORIENTED_EDGE ( 'NONE', *, *, #29, .T. ) ;
#58 = ORIENTED_EDGE ( 'NONE', *, *, #67, .F. ) ;
#59 = CLOSED_SHELL ( 'NONE', ( #46, #37, #76, #26, #63, #70 ) ) ;
#60 = ORIENTED_EDGE ( 'NONE', *, *, #61, .T. ) ;
#61 = EDGE_CURVE ( 'NONE', #42, #73, #186, .T. ) ;
#62 = ORIENTED_EDGE ( 'NONE', *, *, #25, .T. ) ;
#63 = ADVANCED_FACE ( 'NONE', ( #181 ), #218, .T. ) ;
#64 = EDGE_LOOP ( 'NONE', ( #65, #66, #68, #69 ) ) ;
#65 = ORIENTED_EDGE ( 'NONE', *, *, #41, .F. ) ;
#66 = ORIENTED_EDGE ( 'NONE', *, *, #67, .T. ) ;
#67 = EDGE_CURVE ( 'NONE', #34, #31, #213, .T. ) ;
#68 = ORIENTED_EDGE ( 'NONE', *, *, #75, .T. ) ;
#69 = ORIENTED_EDGE ( 'NONE', *, *, #61, .F. ) ;
#70 = ADVANCED_FACE ( 'NONE', ( #209 ), #250, .T. ) ;
#71 = EDGE_LOOP ( 'NONE', ( #56, #57, #58 ) ) ;
#72 = EDGE_CURVE ( 'NONE', #73, #42, #246, .T. ) ;
#73 = VERTEX_POINT ( 'NONE', #241 ) ;
#74 = ORIENTED_EDGE ( 'NONE', *, *, #75, .F. ) ;
#75 = EDGE_CURVE ( 'NONE', #31, #73, #239, .T. ) ;
#76 = ADVANCED_FACE ( 'NONE', ( #235 ), #266, .T. ) ;
#77 = EDGE_LOOP ( 'NONE', ( #78, #79, #24 ) ) ;
#78 = ORIENTED_EDGE ( 'NONE', *, *, #72, .T. ) ;
#79 = ORIENTED_EDGE ( 'NONE', *, *, #80, .T. ) ;
#80 = EDGE_CURVE ( 'NONE', #42, #23, #262, .T. ) ;
#81 = DIRECTION ( 'NONE',  ( 0.0000000000000000000, 1.000000000000000000, 0.0000000000000000000 ) ) ;
#82 = DIRECTION ( 'NONE',  ( 0.0000000000000000000, 0.0000000000000000000, 1.000000000000000000 ) ) ;
#83 = AXIS2_PLACEMENT_3D ( 'NONE', #86, #82, #81 ) ;
#84 = SPHERICAL_SURFACE ( 'NONE', #83, 27.14566929133858500 ) ;
#85 = CARTESIAN_POINT ( 'NONE',  ( 27.19119755278753200, 0.02144017688972844200, 0.03367326920033877900 ) ) ;
#86 = CARTESIAN_POINT ( 'NONE',  ( -26.94659772280302000, 0.02144017688972844200, 0.03367326920033877900 ) ) ;
#87 =( GEOMETRIC_REPRESENTATION_CONTEXT ( 3 ) GLOBAL_UNCERTAINTY_ASSIGNED_CONTEXT ( ( #88 ) ) GLOBAL_UNIT_ASSIGNED_CONTEXT ( ( #91, #90, #89 ) ) REPRESENTATION_CONTEXT ( 'NONE', 'WORKASPACE' ) );
#88 = UNCERTAINTY_MEASURE_WITH_UNIT (LENGTH_MEASURE( 1.000000000000000100E-005 ), #91, 'distance_accuracy_value', 'NONE');
#89 =( NAMED_UNIT ( * ) SI_UNIT ( $, .STERADIAN. ) SOLID_ANGLE_UNIT ( ) );
#90 =( NAMED_UNIT ( * ) PLANE_ANGLE_UNIT ( ) SI_UNIT ( $, .RADIAN. ) );
#91 =( CONVERSION_BASED_UNIT ( 'INCH', #92 ) LENGTH_UNIT ( ) NAMED_UNIT ( #93 ) );
#92 = LENGTH_MEASURE_WITH_UNIT ( LENGTH_MEASURE( 0.02539999999999999900 ), #94 );
#93 = DIMENSIONAL_EXPONENTS ( 1.000000000000000000, 0.0000000000000000000, 0.0000000000000000000, 0.0000000000000000000, 0.0000000000000000000, 0.0000000000000000000, 0.0000000000000000000 ) ;
#94 =( LENGTH_UNIT ( ) NAMED_UNIT ( * ) SI_UNIT ( $, .METRE. ) );
#95 = MECHANICAL_DESIGN_GEOMETRIC_PRESENTATION_REPRESENTATION (  '', ( #97 ), #87 ) ;
#96 = PRESENTATION_LAYER_ASSIGNMENT (  '', '', ( #97 ) ) ;
#97 = STYLED_ITEM ( 'NONE', ( #98 ), #26 ) ;
#98 = PRESENTATION_STYLE_ASSIGNMENT (( #99 ) ) ;
#99 = SURFACE_STYLE_USAGE ( .BOTH. , #100 ) ;
#100 = SURFACE_SIDE_STYLE ('',( #101 ) ) ;
#101 = SURFACE_STYLE_FILL_AREA ( #102 ) ;
#102 = FILL_AREA_STYLE ('',( #48 ) ) ;
#103 = COLOUR_RGB ( '',0.7529411764705882200, 0.7529411764705882200, 0.7529411764705882200 ) ;
#104 =( NAMED_UNIT ( * ) SI_UNIT ( $, .STERADIAN. ) SOLID_ANGLE_UNIT ( ) );
#105 =( NAMED_UNIT ( * ) PLANE_ANGLE_UNIT ( ) SI_UNIT ( $, .RADIAN. ) );
#106 =( CONVERSION_BASED_UNIT ( 'INCH', #107 ) LENGTH_UNIT ( ) NAMED_UNIT ( #108 ) );
#107 = LENGTH_MEASURE_WITH_UNIT ( LENGTH_MEASURE( 0.02539999999999999900 ), #109 );
#108 = DIMENSIONAL_EXPONENTS ( 1.000000000000000000, 0.0000000000000000000, 0.0000000000000000000, 0.0000000000000000000, 0.0000000000000000000, 0.0000000000000000000, 0.0000000000000000000 ) ;
#109 =( LENGTH_UNIT ( ) NAMED_UNIT ( * ) SI_UNIT ( $, .METRE. ) );
#110 = MECHANICAL_DESIGN_GEOMETRIC_PRESENTATION_REPRESENTATION (  '', ( #112 ), #163 ) ;
#111 = PRESENTATION_LAYER_ASSIGNMENT (  '', '', ( #112 ) ) ;
#112 = STYLED_ITEM ( 'NONE', ( #113 ), #37 ) ;
#113 = PRESENTATION_STYLE_ASSIGNMENT (( #114 ) ) ;
#114 = SURFACE_STYLE_USAGE ( .BOTH. , #115 ) ;
#115 = SURFACE_SIDE_STYLE ('',( #116 ) ) ;
#116 = SURFACE_STYLE_FILL_AREA ( #117 ) ;
#117 = FILL_AREA_STYLE ('',( #125 ) ) ;
#118 = COLOUR_RGB ( '',0.7529411764705882200, 0.7529411764705882200, 0.7529411764705882200 ) ;
#119 = FACE_OUTER_BOUND ( 'NONE', #38, .T. ) ;
#120 = DIRECTION ( 'NONE',  ( 0.0000000000000000000, 1.000000000000000000, 0.0000000000000000000 ) ) ;
#121 = DIRECTION ( 'NONE',  ( 1.000000000000000000, -1.234570477171305000E-032, 0.0000000000000000000 ) ) ;
#122 = CARTESIAN_POINT ( 'NONE',  ( 0.06395365896885447900, 0.02144017688972844200, 0.03367326920033877900 ) ) ;
#123 = AXIS2_PLACEMENT_3D ( 'NONE', #122, #121, #120 ) ;
#124 = CIRCLE ( 'NONE', #123, 0.9999999999999965600 ) ;
#125 = FILL_AREA_STYLE_COLOUR ( '', #118 ) ;
#126 = CARTESIAN_POINT ( 'NONE',  ( 0.06395365896885447900, -0.9785598231102681200, 0.03367326920033890400 ) ) ;
#127 = DIRECTION ( 'NONE',  ( 0.0000000000000000000, -1.000000000000000000, 1.224936174570279900E-016 ) ) ;
#128 = DIRECTION ( 'NONE',  ( 1.511862850585504300E-048, 1.224606353822377300E-016, 1.000000000000000000 ) ) ;
#129 = CARTESIAN_POINT ( 'NONE',  ( 27.19119755278753200, 0.02144017688972844200, 0.03367326920033877900 ) ) ;
#130 = AXIS2_PLACEMENT_3D ( 'NONE', #129, #128, #127 ) ;
#131 = CIRCLE ( 'NONE', #130, 27.14566929133858500 ) ;
#132 = CARTESIAN_POINT ( 'NONE',  ( 0.06395365896885447900, 1.021440176889725000, 0.03367326920033877900 ) ) ;
#133 = CARTESIAN_POINT ( 'NONE',  ( 0.04552826144895025900, 0.02144017688973010000, 0.03367326920033877900 ) ) ;
#134 = DIRECTION ( 'NONE',  ( -1.000000000000000000, 0.0000000000000000000, 0.0000000000000000000 ) ) ;
#135 = DIRECTION ( 'NONE',  ( 0.0000000000000000000, 0.0000000000000000000, -1.000000000000000000 ) ) ;
#136 = AXIS2_PLACEMENT_3D ( 'NONE', #85, #135, #134 ) ;
#137 = CIRCLE ( 'NONE', #136, 27.14566929133858500 ) ;
#138 =( NAMED_UNIT ( * ) PLANE_ANGLE_UNIT ( ) SI_UNIT ( $, .RADIAN. ) );
#139 =( CONVERSION_BASED_UNIT ( 'INCH', #140 ) LENGTH_UNIT ( ) NAMED_UNIT ( #141 ) );
#140 = LENGTH_MEASURE_WITH_UNIT ( LENGTH_MEASURE( 0.02539999999999999900 ), #142 );
#141 = DIMENSIONAL_EXPONENTS ( 1.000000000000000000, 0.0000000000000000000, 0.0000000000000000000, 0.0000000000000000000, 0.0000000000000000000, 0.0000000000000000000, 0.0000000000000000000 ) ;
#142 =( LENGTH_UNIT ( ) NAMED_UNIT ( * ) SI_UNIT ( $, .METRE. ) );
#143 = MECHANICAL_DESIGN_GEOMETRIC_PRESENTATION_REPRESENTATION (  '', ( #145 ), #3 ) ;
#144 = PRESENTATION_LAYER_ASSIGNMENT (  '', '', ( #145 ) ) ;
#145 = STYLED_ITEM ( 'NONE', ( #146 ), #45 ) ;
#146 = PRESENTATION_STYLE_ASSIGNMENT (( #147 ) ) ;
#147 = SURFACE_STYLE_USAGE ( .BOTH. , #148 ) ;
#148 = SURFACE_SIDE_STYLE ('',( #149 ) ) ;
#149 = SURFACE_STYLE_FILL_AREA ( #150 ) ;
#150 = FILL_AREA_STYLE ('',( #151 ) ) ;
#151 = FILL_AREA_STYLE_COLOUR ( '', #152 ) ;
#152 = COLOUR_RGB ( '',0.7529411764705882200, 0.7529411764705882200, 0.7529411764705882200 ) ;
#153 = CARTESIAN_POINT ( 'NONE',  ( 0.1806461710156585200, -0.9785598231102428100, 0.03367326920033890400 ) ) ;
#154 = DIRECTION ( 'NONE',  ( 1.000000000000000000, -1.234570477171305000E-032, 0.0000000000000000000 ) ) ;
#155 = VECTOR ( 'NONE', #154, 39.37007874015748100 ) ;
#156 = CARTESIAN_POINT ( 'NONE',  ( 0.1990715685355614600, -0.9785598231102697900, 0.03367326920033890400 ) ) ;
#157 = DIRECTION ( 'NONE',  ( 0.0000000000000000000, 1.000000000000000000, 0.0000000000000000000 ) ) ;
#158 = DIRECTION ( 'NONE',  ( 1.000000000000000000, -1.234570477171305000E-032, 0.0000000000000000000 ) ) ;
#159 = AXIS2_PLACEMENT_3D ( 'NONE', #162, #158, #157 ) ;
#160 = CYLINDRICAL_SURFACE ( 'NONE', #159, 0.9999999999999982200 ) ;
#161 = LINE ( 'NONE', #156, #155 ) ;
#162 = CARTESIAN_POINT ( 'NONE',  ( 0.1990715685355614600, 0.02144017688972844200, 0.03367326920033877900 ) ) ;
#163 =( GEOMETRIC_REPRESENTATION_CONTEXT ( 3 ) GLOBAL_UNCERTAINTY_ASSIGNED_CONTEXT ( ( #164 ) ) GLOBAL_UNIT_ASSIGNED_CONTEXT ( ( #106, #105, #104 ) ) REPRESENTATION_CONTEXT ( 'NONE', 'WORKASPACE' ) );
#164 = UNCERTAINTY_MEASURE_WITH_UNIT (LENGTH_MEASURE( 1.000000000000000100E-005 ), #106, 'distance_accuracy_value', 'NONE');
#165 = UNCERTAINTY_MEASURE_WITH_UNIT (LENGTH_MEASURE( 1.000000000000000100E-005 ), #168, 'distance_accuracy_value', 'NONE');
#166 =( NAMED_UNIT ( * ) SI_UNIT ( $, .STERADIAN. ) SOLID_ANGLE_UNIT ( ) );
#167 =( NAMED_UNIT ( * ) PLANE_ANGLE_UNIT ( ) SI_UNIT ( $, .RADIAN. ) );
#168 =( CONVERSION_BASED_UNIT ( 'INCH', #169 ) LENGTH_UNIT ( ) NAMED_UNIT ( #170 ) );
#169 = LENGTH_MEASURE_WITH_UNIT ( LENGTH_MEASURE( 0.02539999999999999900 ), #171 );
#170 = DIMENSIONAL_EXPONENTS ( 1.000000000000000000, 0.0000000000000000000, 0.0000000000000000000, 0.0000000000000000000, 0.0000000000000000000, 0.0000000000000000000, 0.0000000000000000000 ) ;
#171 =( LENGTH_UNIT ( ) NAMED_UNIT ( * ) SI_UNIT ( $, .METRE. ) );
#172 = MECHANICAL_DESIGN_GEOMETRIC_PRESENTATION_REPRESENTATION (  '', ( #174 ), #221 ) ;
#173 = PRESENTATION_LAYER_ASSIGNMENT (  '', '', ( #174 ) ) ;
#174 = STYLED_ITEM ( 'NONE', ( #175 ), #63 ) ;
#175 = PRESENTATION_STYLE_ASSIGNMENT (( #176 ) ) ;
#176 = SURFACE_STYLE_USAGE ( .BOTH. , #177 ) ;
#177 = SURFACE_SIDE_STYLE ('',( #178 ) ) ;
#178 = SURFACE_STYLE_FILL_AREA ( #179 ) ;
#179 = FILL_AREA_STYLE ('',( #187 ) ) ;
#180 = COLOUR_RGB ( '',0.7529411764705882200, 0.7529411764705882200, 0.7529411764705882200 ) ;
#181 = FACE_OUTER_BOUND ( 'NONE', #64, .T. ) ;
#182 = DIRECTION ( 'NONE',  ( 0.0000000000000000000, 1.000000000000000000, 0.0000000000000000000 ) ) ;
#183 = DIRECTION ( 'NONE',  ( 1.000000000000000000, -1.234570477171305000E-032, 0.0000000000000000000 ) ) ;
#184 = CARTESIAN_POINT ( 'NONE',  ( 0.1806461710156567500, 0.02144017688972844200, 0.03367326920033877900 ) ) ;
#185 = AXIS2_PLACEMENT_3D ( 'NONE', #184, #183, #182 ) ;
#186 = CIRCLE ( 'NONE', #185, 0.9999999999999998900 ) ;
#187 = FILL_AREA_STYLE_COLOUR ( '', #180 ) ;
#188 = DIRECTION ( 'NONE',  ( 0.0000000000000000000, 1.000000000000000000, 0.0000000000000000000 ) ) ;
#189 = DIRECTION ( 'NONE',  ( 0.0000000000000000000, 0.0000000000000000000, 1.000000000000000000 ) ) ;
#190 = AXIS2_PLACEMENT_3D ( 'NONE', #192, #189, #188 ) ;
#191 = SPHERICAL_SURFACE ( 'NONE', #190, 27.14566929133858500 ) ;
#192 = CARTESIAN_POINT ( 'NONE',  ( 27.19119755278753200, 0.02144017688972844200, 0.03367326920033877900 ) ) ;
#193 = UNCERTAINTY_MEASURE_WITH_UNIT (LENGTH_MEASURE( 1.000000000000000100E-005 ), #196, 'distance_accuracy_value', 'NONE');
#194 =( NAMED_UNIT ( * ) SI_UNIT ( $, .STERADIAN. ) SOLID_ANGLE_UNIT ( ) );
#195 =( NAMED_UNIT ( * ) PLANE_ANGLE_UNIT ( ) SI_UNIT ( $, .RADIAN. ) );
#196 =( CONVERSION_BASED_UNIT ( 'INCH', #197 ) LENGTH_UNIT ( ) NAMED_UNIT ( #198 ) );
#197 = LENGTH_MEASURE_WITH_UNIT ( LENGTH_MEASURE( 0.02539999999999999900 ), #199 );
#198 = DIMENSIONAL_EXPONENTS ( 1.000000000000000000, 0.0000000000000000000, 0.0000000000000000000, 0.0000000000000000000, 0.0000000000000000000, 0.0000000000000000000, 0.0000000000000000000 ) ;
#199 =( LENGTH_UNIT ( ) NAMED_UNIT ( * ) SI_UNIT ( $, .METRE. ) );
#200 = MECHANICAL_DESIGN_GEOMETRIC_PRESENTATION_REPRESENTATION (  '', ( #202 ), #252 ) ;
#201 = PRESENTATION_LAYER_ASSIGNMENT (  '', '', ( #202 ) ) ;
#202 = STYLED_ITEM ( 'NONE', ( #203 ), #70 ) ;
#203 = PRESENTATION_STYLE_ASSIGNMENT (( #204 ) ) ;
#204 = SURFACE_STYLE_USAGE ( .BOTH. , #205 ) ;
#205 = SURFACE_SIDE_STYLE ('',( #206 ) ) ;
#206 = SURFACE_STYLE_FILL_AREA ( #207 ) ;
#207 = FILL_AREA_STYLE ('',( #214 ) ) ;
#208 = COLOUR_RGB ( '',0.7529411764705882200, 0.7529411764705882200, 0.7529411764705882200 ) ;
#209 = FACE_OUTER_BOUND ( 'NONE', #71, .T. ) ;
#210 = DIRECTION ( 'NONE',  ( 0.0000000000000000000, 1.000000000000000000, 0.0000000000000000000 ) ) ;
#211 = DIRECTION ( 'NONE',  ( 1.000000000000000000, -1.234570477171305000E-032, 0.0000000000000000000 ) ) ;
#212 = AXIS2_PLACEMENT_3D ( 'NONE', #219, #211, #210 ) ;
#213 = CIRCLE ( 'NONE', #212, 0.9999999999999965600 ) ;
#214 = FILL_AREA_STYLE_COLOUR ( '', #208 ) ;
#215 = DIRECTION ( 'NONE',  ( 0.0000000000000000000, 1.000000000000000000, 0.0000000000000000000 ) ) ;
#216 = DIRECTION ( 'NONE',  ( 1.000000000000000000, -1.234570477171305000E-032, 0.0000000000000000000 ) ) ;
#217 = AXIS2_PLACEMENT_3D ( 'NONE', #220, #216, #215 ) ;
#218 = CYLINDRICAL_SURFACE ( 'NONE', #217, 0.9999999999999982200 ) ;
#219 = CARTESIAN_POINT ( 'NONE',  ( 0.06395365896885447900, 0.02144017688972844200, 0.03367326920033877900 ) ) ;
#220 = CARTESIAN_POINT ( 'NONE',  ( 0.1990715685355614600, 0.02144017688972844200, 0.03367326920033877900 ) ) ;
#221 =( GEOMETRIC_REPRESENTATION_CONTEXT ( 3 ) GLOBAL_UNCERTAINTY_ASSIGNED_CONTEXT ( ( #165 ) ) GLOBAL_UNIT_ASSIGNED_CONTEXT ( ( #168, #167, #166 ) ) REPRESENTATION_CONTEXT ( 'NONE', 'WORKASPACE' ) );
#222 =( CONVERSION_BASED_UNIT ( 'INCH', #223 ) LENGTH_UNIT ( ) NAMED_UNIT ( #224 ) );
#223 = LENGTH_MEASURE_WITH_UNIT ( LENGTH_MEASURE( 0.02539999999999999900 ), #225 );
#224 = DIMENSIONAL_EXPONENTS ( 1.000000000000000000, 0.0000000000000000000, 0.0000000000000000000, 0.0000000000000000000, 0.0000000000000000000, 0.0000000000000000000, 0.0000000000000000000 ) ;
#225 =( LENGTH_UNIT ( ) NAMED_UNIT ( * ) SI_UNIT ( $, .METRE. ) );
#226 = MECHANICAL_DESIGN_GEOMETRIC_PRESENTATION_REPRESENTATION (  '', ( #228 ), #268 ) ;
#227 = PRESENTATION_LAYER_ASSIGNMENT (  '', '', ( #228 ) ) ;
#228 = STYLED_ITEM ( 'NONE', ( #229 ), #76 ) ;
#229 = PRESENTATION_STYLE_ASSIGNMENT (( #230 ) ) ;
#230 = SURFACE_STYLE_USAGE ( .BOTH. , #231 ) ;
#231 = SURFACE_SIDE_STYLE ('',( #232 ) ) ;
#232 = SURFACE_STYLE_FILL_AREA ( #233 ) ;
#233 = FILL_AREA_STYLE ('',( #240 ) ) ;
#234 = COLOUR_RGB ( '',0.7529411764705882200, 0.7529411764705882200, 0.7529411764705882200 ) ;
#235 = FACE_OUTER_BOUND ( 'NONE', #77, .T. ) ;
#236 = DIRECTION ( 'NONE',  ( 1.000000000000000000, -1.234570477171305000E-032, 0.0000000000000000000 ) ) ;
#237 = VECTOR ( 'NONE', #236, 39.37007874015748100 ) ;
#238 = CARTESIAN_POINT ( 'NONE',  ( 0.1990715685355614600, 1.021440176889726800, 0.03367326920033877900 ) ) ;
#239 = LINE ( 'NONE', #238, #237 ) ;
#240 = FILL_AREA_STYLE_COLOUR ( '', #234 ) ;
#241 = CARTESIAN_POINT ( 'NONE',  ( 0.1806461710156577500, 1.021440176889699700, 0.03367326920033877900 ) ) ;
#242 = DIRECTION ( 'NONE',  ( 0.0000000000000000000, 1.000000000000000000, 0.0000000000000000000 ) ) ;
#243 = DIRECTION ( 'NONE',  ( 1.000000000000000000, -1.234570477171305000E-032, 0.0000000000000000000 ) ) ;
#244 = CARTESIAN_POINT ( 'NONE',  ( 0.1806461710156567500, 0.02144017688972844200, 0.03367326920033877900 ) ) ;
#245 = AXIS2_PLACEMENT_3D ( 'NONE', #244, #243, #242 ) ;
#246 = CIRCLE ( 'NONE', #245, 0.9999999999999998900 ) ;
#247 = DIRECTION ( 'NONE',  ( 0.0000000000000000000, 1.000000000000000000, 0.0000000000000000000 ) ) ;
#248 = DIRECTION ( 'NONE',  ( 0.0000000000000000000, 0.0000000000000000000, 1.000000000000000000 ) ) ;
#249 = AXIS2_PLACEMENT_3D ( 'NONE', #251, #248, #247 ) ;
#250 = SPHERICAL_SURFACE ( 'NONE', #249, 27.14566929133858500 ) ;
#251 = CARTESIAN_POINT ( 'NONE',  ( 27.19119755278753200, 0.02144017688972844200, 0.03367326920033877900 ) ) ;
#252 =( GEOMETRIC_REPRESENTATION_CONTEXT ( 3 ) GLOBAL_UNCERTAINTY_ASSIGNED_CONTEXT ( ( #193 ) ) GLOBAL_UNIT_ASSIGNED_CONTEXT ( ( #196, #195, #194 ) ) REPRESENTATION_CONTEXT ( 'NONE', 'WORKASPACE' ) );
#253 =( NAMED_UNIT ( * ) PLANE_ANGLE_UNIT ( ) SI_UNIT ( $, .RADIAN. ) );
#254 =( CONVERSION_BASED_UNIT ( 'INCH', #255 ) LENGTH_UNIT ( ) NAMED_UNIT ( #256 ) );
#255 = LENGTH_MEASURE_WITH_UNIT ( LENGTH_MEASURE( 0.02539999999999999900 ), #257 );
#256 = DIMENSIONAL_EXPONENTS ( 1.000000000000000000, 0.0000000000000000000, 0.0000000000000000000, 0.0000000000000000000, 0.0000000000000000000, 0.0000000000000000000, 0.0000000000000000000 ) ;
#257 =( LENGTH_UNIT ( ) NAMED_UNIT ( * ) SI_UNIT ( $, .METRE. ) );
#258 = DIRECTION ( 'NONE',  ( 0.0000000000000000000, -1.000000000000000000, 1.224936174570279900E-016 ) ) ;
#259 = DIRECTION ( 'NONE',  ( 1.511862850585504300E-048, 1.224606353822377300E-016, 1.000000000000000000 ) ) ;
#260 = CARTESIAN_POINT ( 'NONE',  ( -26.94659772280302000, 0.02144017688972844200, 0.03367326920033877900 ) ) ;
#261 = AXIS2_PLACEMENT_3D ( 'NONE', #260, #259, #258 ) ;
#262 = CIRCLE ( 'NONE', #261, 27.14566929133858500 ) ;
#263 = DIRECTION ( 'NONE',  ( 0.0000000000000000000, 1.000000000000000000, 0.0000000000000000000 ) ) ;
#264 = DIRECTION ( 'NONE',  ( 0.0000000000000000000, 0.0000000000000000000, 1.000000000000000000 ) ) ;
#265 = AXIS2_PLACEMENT_3D ( 'NONE', #267, #264, #263 ) ;
#266 = SPHERICAL_SURFACE ( 'NONE', #265, 27.14566929133858500 ) ;
#267 = CARTESIAN_POINT ( 'NONE',  ( -26.94659772280302000, 0.02144017688972844200, 0.03367326920033877900 ) ) ;
#268 =( GEOMETRIC_REPRESENTATION_CONTEXT ( 3 ) GLOBAL_UNCERTAINTY_ASSIGNED_CONTEXT ( ( #269 ) ) GLOBAL_UNIT_ASSIGNED_CONTEXT ( ( #222, #271, #270 ) ) REPRESENTATION_CONTEXT ( 'NONE', 'WORKASPACE' ) );
#269 = UNCERTAINTY_MEASURE_WITH_UNIT (LENGTH_MEASURE( 1.000000000000000100E-005 ), #222, 'distance_accuracy_value', 'NONE');
#270 =( NAMED_UNIT ( * ) SI_UNIT ( $, .STERADIAN. ) SOLID_ANGLE_UNIT ( ) );
#271 =( NAMED_UNIT ( * ) PLANE_ANGLE_UNIT ( ) SI_UNIT ( $, .RADIAN. ) );
#272 = DIRECTION ( 'NONE',  ( 1.000000000000000000, 0.0000000000000000000, 0.0000000000000000000 ) ) ;
#273 = DIRECTION ( 'NONE',  ( 0.0000000000000000000, 0.0000000000000000000, 1.000000000000000000 ) ) ;
#274 = CARTESIAN_POINT ( 'NONE',  ( 0.0000000000000000000, 0.0000000000000000000, 0.0000000000000000000 ) ) ;
#275 = AXIS2_PLACEMENT_3D ( 'NONE', #274, #273, #272 ) ;
#276 = SHAPE_DEFINITION_REPRESENTATION ( #281, #277 ) ;
#277 = ADVANCED_BREP_SHAPE_REPRESENTATION ( '3421-E0W', ( #45, #275 ), #278 ) ;
#278 =( GEOMETRIC_REPRESENTATION_CONTEXT ( 3 ) GLOBAL_UNCERTAINTY_ASSIGNED_CONTEXT ( ( #279 ) ) GLOBAL_UNIT_ASSIGNED_CONTEXT ( ( #254, #253, #280 ) ) REPRESENTATION_CONTEXT ( 'NONE', 'WORKASPACE' ) );
#279 = UNCERTAINTY_MEASURE_WITH_UNIT (LENGTH_MEASURE( 1.000000000000000100E-005 ), #254, 'distance_accuracy_value', 'NONE');
#280 =( NAMED_UNIT ( * ) SI_UNIT ( $, .STERADIAN. ) SOLID_ANGLE_UNIT ( ) );
#281 = PRODUCT_DEFINITION_SHAPE ( 'NONE', 'NONE',  #284 ) ;
#282 = PRODUCT_RELATED_PRODUCT_CATEGORY ( 'part', '', ( #288 ) ) ;
#283 = PRODUCT_DEFINITION_FORMATION_WITH_SPECIFIED_SOURCE ( 'ANY', '', #288, .NOT_KNOWN. ) ;
#284 = PRODUCT_DEFINITION ( 'UNKNOWN', '', #283, #285 ) ;
#285 = PRODUCT_DEFINITION_CONTEXT ( 'detailed design', #287, 'design' ) ;
#286 = APPLICATION_PROTOCOL_DEFINITION ( 'draft international standard', 'automotive_design', 1998, #287 ) ;
#287 = APPLICATION_CONTEXT ( 'automotive_design' ) ;
#288 = PRODUCT ( '3421-E0W', '3421-E0W', '', ( #289 ) ) ;
#289 = PRODUCT_CONTEXT ( 'NONE', #291, 'mechanical' ) ;
#290 = APPLICATION_PROTOCOL_DEFINITION ( 'draft international standard', 'automotive_design', 1998, #291 ) ;
#291 = APPLICATION_CONTEXT ( 'automotive_design' ) ;
ENDSEC;
END-ISO-10303-21;
