ISO-10303-21;
HEADER;
FILE_DESCRIPTION (( 'STEP AP203' ),
    '1' );
FILE_NAME ('Web Model 43368_20945.step',
    '2022-03-16T14:23:42',
    ( '' ),
    ( '' ),
    'SwSTEP 2.0',
    'SolidWorks 2021',
    '' );
FILE_SCHEMA (( 'CONFIG_CONTROL_DESIGN' ));
ENDSEC;

DATA;
#1 = PERSON_AND_ORGANIZATION_ROLE ( 'design_supplier' ) ;
#2 = CALENDAR_DATE ( 2022, 16, 3 ) ;
#3 = VECTOR ( 'NONE', #168, 1000.000000000000000 ) ;
#4 = DIRECTION ( 'NONE',  ( 1.000000000000000000, 0.000000000000000000, -0.000000000000000000 ) ) ;
#5 = ORIENTED_EDGE ( 'NONE', *, *, #125, .F. ) ;
#6 = APPROVAL ( #82, 'UNSPECIFIED' ) ;
#7 = CARTESIAN_POINT ( 'NONE',  ( 10.00000000000000000, 1.224646799147353256E-15, 1.000000000000000000 ) ) ;
#8 = LOCAL_TIME ( 10, 23, 42.00000000000000000, #42 ) ;
#9 = APPLICATION_PROTOCOL_DEFINITION ( 'international standard', 'config_control_design', 1994, #71 ) ;
#10 = DIRECTION ( 'NONE',  ( 1.000000000000000000, 0.000000000000000000, 0.000000000000000000 ) ) ;
#11 =( NAMED_UNIT ( * ) SI_UNIT ( $, .STERADIAN. ) SOLID_ANGLE_UNIT ( ) );
#12 = APPROVAL_ROLE ( '' ) ;
#13 = ADVANCED_FACE ( 'NONE', ( #165 ), #141, .F. ) ;
#14 = APPROVAL_DATE_TIME ( #174, #6 ) ;
#15 = MANIFOLD_SOLID_BREP ( 'Boss-Extrude1', #26 ) ;
#16 = PRODUCT_RELATED_PRODUCT_CATEGORY ( 'detail', '', ( #129 ) ) ;
#17 = CC_DESIGN_APPROVAL ( #152, ( #108 ) ) ;
#18 = DESIGN_CONTEXT ( 'detailed design', #71, 'design' ) ;
#19 = ORIENTED_EDGE ( 'NONE', *, *, #52, .F. ) ;
#20 = CARTESIAN_POINT ( 'NONE',  ( 0.000000000000000000, 0.000000000000000000, 1.000000000000000000 ) ) ;
#21 = LINE ( 'NONE', #7, #3 ) ;
#22 =( GEOMETRIC_REPRESENTATION_CONTEXT ( 3 ) GLOBAL_UNCERTAINTY_ASSIGNED_CONTEXT ( ( #47 ) ) GLOBAL_UNIT_ASSIGNED_CONTEXT ( ( #146, #114, #11 ) ) REPRESENTATION_CONTEXT ( 'NONE', 'WORKASPACE' ) );
#23 = DATE_AND_TIME ( #38, #33 ) ;
#24 = CARTESIAN_POINT ( 'NONE',  ( 0.000000000000000000, 0.000000000000000000, 0.000000000000000000 ) ) ;
#25 = CARTESIAN_POINT ( 'NONE',  ( 10.00000000000000000, 1.224646799147353256E-15, 1.000000000000000000 ) ) ;
#26 = CLOSED_SHELL ( 'NONE', ( #123, #167, #46, #13 ) ) ;
#27 = COORDINATED_UNIVERSAL_TIME_OFFSET ( 5, 0, .BEHIND. ) ;
#28 = PERSON_AND_ORGANIZATION ( #137, #162 ) ;
#29 = AXIS2_PLACEMENT_3D ( 'NONE', #24, #142, #64 ) ;
#30 = EDGE_LOOP ( 'NONE', ( #58, #112, #166, #19 ) ) ;
#31 = CIRCLE ( 'NONE', #154, 10.00000000000000000 ) ;
#32 = AXIS2_PLACEMENT_3D ( 'NONE', #20, #78, #39 ) ;
#33 = LOCAL_TIME ( 10, 23, 42.00000000000000000, #76 ) ;
#34 = CC_DESIGN_PERSON_AND_ORGANIZATION_ASSIGNMENT ( #53, #106, ( #108 ) ) ;
#35 = VERTEX_POINT ( 'NONE', #109 ) ;
#36 = MECHANICAL_CONTEXT ( 'NONE', #74, 'mechanical' ) ;
#37 = DIRECTION ( 'NONE',  ( 0.000000000000000000, 0.000000000000000000, 1.000000000000000000 ) ) ;
#38 = CALENDAR_DATE ( 2022, 16, 3 ) ;
#39 = DIRECTION ( 'NONE',  ( -1.000000000000000000, 0.000000000000000000, 0.000000000000000000 ) ) ;
#40 = APPROVAL_ROLE ( '' ) ;
#41 = SECURITY_CLASSIFICATION ( '', '', #66 ) ;
#42 = COORDINATED_UNIVERSAL_TIME_OFFSET ( 5, 0, .BEHIND. ) ;
#43 = CC_DESIGN_PERSON_AND_ORGANIZATION_ASSIGNMENT ( #172, #88, ( #129 ) ) ;
#44 = ORIENTED_EDGE ( 'NONE', *, *, #92, .F. ) ;
#45 = FACE_OUTER_BOUND ( 'NONE', #87, .T. ) ;
#46 = ADVANCED_FACE ( 'NONE', ( #45 ), #94, .T. ) ;
#47 = UNCERTAINTY_MEASURE_WITH_UNIT (LENGTH_MEASURE( 1.000000000000000082E-05 ), #146, 'distance_accuracy_value', 'NONE');
#48 = DIRECTION ( 'NONE',  ( 0.000000000000000000, 0.000000000000000000, 1.000000000000000000 ) ) ;
#49 = AXIS2_PLACEMENT_3D ( 'NONE', #84, #48, #4 ) ;
#50 = APPROVAL_ROLE ( '' ) ;
#51 = DIRECTION ( 'NONE',  ( 1.000000000000000000, 0.000000000000000000, 0.000000000000000000 ) ) ;
#52 = EDGE_CURVE ( 'NONE', #151, #35, #72, .T. ) ;
#53 = PERSON_AND_ORGANIZATION ( #137, #162 ) ;
#54 = CIRCLE ( 'NONE', #68, 10.00000000000000000 ) ;
#55 = PERSON_AND_ORGANIZATION ( #137, #162 ) ;
#56 = SHAPE_DEFINITION_REPRESENTATION ( #99, #83 ) ;
#57 = COORDINATED_UNIVERSAL_TIME_OFFSET ( 5, 0, .BEHIND. ) ;
#58 = ORIENTED_EDGE ( 'NONE', *, *, #59, .F. ) ;
#59 = EDGE_CURVE ( 'NONE', #70, #151, #31, .T. ) ;
#60 = EDGE_LOOP ( 'NONE', ( #113, #44, #156, #126 ) ) ;
#61 = FACE_OUTER_BOUND ( 'NONE', #60, .T. ) ;
#62 = APPROVAL_PERSON_ORGANIZATION ( #80, #173, #40 ) ;
#63 = CARTESIAN_POINT ( 'NONE',  ( 10.00000000000000000, 1.224646799147353256E-15, 0.000000000000000000 ) ) ;
#64 = DIRECTION ( 'NONE',  ( 1.000000000000000000, 0.000000000000000000, 0.000000000000000000 ) ) ;
#65 = PERSON_AND_ORGANIZATION ( #137, #162 ) ;
#66 = SECURITY_CLASSIFICATION_LEVEL ( 'unclassified' ) ;
#67 = CALENDAR_DATE ( 2022, 16, 3 ) ;
#68 = AXIS2_PLACEMENT_3D ( 'NONE', #103, #158, #10 ) ;
#69 = CIRCLE ( 'NONE', #29, 10.00000000000000000 ) ;
#70 = VERTEX_POINT ( 'NONE', #25 ) ;
#71 = APPLICATION_CONTEXT ( 'configuration controlled 3d designs of mechanical parts and assemblies' ) ;
#72 = LINE ( 'NONE', #127, #138 ) ;
#73 = DIRECTION ( 'NONE',  ( -0.000000000000000000, -0.000000000000000000, -1.000000000000000000 ) ) ;
#74 = APPLICATION_CONTEXT ( 'configuration controlled 3d designs of mechanical parts and assemblies' ) ;
#75 = AXIS2_PLACEMENT_3D ( 'NONE', #102, #159, #133 ) ;
#76 = COORDINATED_UNIVERSAL_TIME_OFFSET ( 5, 0, .BEHIND. ) ;
#77 = CYLINDRICAL_SURFACE ( 'NONE', #75, 10.00000000000000000 ) ;
#78 = DIRECTION ( 'NONE',  ( -0.000000000000000000, -0.000000000000000000, -1.000000000000000000 ) ) ;
#79 = PERSON_AND_ORGANIZATION_ROLE ( 'creator' ) ;
#80 = PERSON_AND_ORGANIZATION ( #137, #162 ) ;
#81 = DATE_AND_TIME ( #2, #121 ) ;
#82 = APPROVAL_STATUS ( 'not_yet_approved' ) ;
#83 = ADVANCED_BREP_SHAPE_REPRESENTATION ( 'Web Model 43368_20945', ( #15, #169 ), #22 ) ;
#84 = CARTESIAN_POINT ( 'NONE',  ( 0.000000000000000000, 0.000000000000000000, 0.000000000000000000 ) ) ;
#85 = APPROVAL_PERSON_ORGANIZATION ( #55, #6, #12 ) ;
#86 = ORIENTED_EDGE ( 'NONE', *, *, #59, .T. ) ;
#87 = EDGE_LOOP ( 'NONE', ( #124, #86 ) ) ;
#88 = PERSON_AND_ORGANIZATION_ROLE ( 'design_owner' ) ;
#89 = CARTESIAN_POINT ( 'NONE',  ( 0.000000000000000000, 0.000000000000000000, 1.000000000000000000 ) ) ;
#90 = LOCAL_TIME ( 10, 23, 42.00000000000000000, #57 ) ;
#91 = DATE_AND_TIME ( #150, #90 ) ;
#92 = EDGE_CURVE ( 'NONE', #151, #70, #54, .T. ) ;
#93 = VERTEX_POINT ( 'NONE', #63 ) ;
#94 = PLANE ( 'NONE',  #147 ) ;
#95 = CC_DESIGN_SECURITY_CLASSIFICATION ( #41, ( #175 ) ) ;
#96 = EDGE_LOOP ( 'NONE', ( #5, #110 ) ) ;
#97 = EDGE_CURVE ( 'NONE', #93, #35, #149, .T. ) ;
#98 = DIRECTION ( 'NONE',  ( 0.000000000000000000, 0.000000000000000000, 1.000000000000000000 ) ) ;
#99 = PRODUCT_DEFINITION_SHAPE ( 'NONE', 'NONE',  #108 ) ;
#100 = CARTESIAN_POINT ( 'NONE',  ( 0.000000000000000000, 0.000000000000000000, 0.000000000000000000 ) ) ;
#101 = CYLINDRICAL_SURFACE ( 'NONE', #32, 10.00000000000000000 ) ;
#102 = CARTESIAN_POINT ( 'NONE',  ( 0.000000000000000000, 0.000000000000000000, 1.000000000000000000 ) ) ;
#103 = CARTESIAN_POINT ( 'NONE',  ( 0.000000000000000000, 0.000000000000000000, 1.000000000000000000 ) ) ;
#104 = LOCAL_TIME ( 10, 23, 42.00000000000000000, #161 ) ;
#105 = CC_DESIGN_PERSON_AND_ORGANIZATION_ASSIGNMENT ( #134, #1, ( #175 ) ) ;
#106 = PERSON_AND_ORGANIZATION_ROLE ( 'creator' ) ;
#107 = APPROVAL_DATE_TIME ( #23, #152 ) ;
#108 = PRODUCT_DEFINITION ( 'UNKNOWN', '', #175, #18 ) ;
#109 = CARTESIAN_POINT ( 'NONE',  ( -10.00000000000000000, 0.000000000000000000, 0.000000000000000000 ) ) ;
#110 = ORIENTED_EDGE ( 'NONE', *, *, #97, .F. ) ;
#111 = CC_DESIGN_PERSON_AND_ORGANIZATION_ASSIGNMENT ( #65, #122, ( #41 ) ) ;
#112 = ORIENTED_EDGE ( 'NONE', *, *, #140, .T. ) ;
#113 = ORIENTED_EDGE ( 'NONE', *, *, #140, .F. ) ;
#114 =( NAMED_UNIT ( * ) PLANE_ANGLE_UNIT ( ) SI_UNIT ( $, .RADIAN. ) );
#115 = CC_DESIGN_APPROVAL ( #173, ( #175 ) ) ;
#116 = PERSON_AND_ORGANIZATION ( #137, #162 ) ;
#117 = DIRECTION ( 'NONE',  ( 1.000000000000000000, 0.000000000000000000, 0.000000000000000000 ) ) ;
#118 = APPLICATION_PROTOCOL_DEFINITION ( 'international standard', 'config_control_design', 1994, #74 ) ;
#119 = APPROVAL_DATE_TIME ( #81, #173 ) ;
#120 = DATE_AND_TIME ( #136, #8 ) ;
#121 = LOCAL_TIME ( 10, 23, 42.00000000000000000, #27 ) ;
#122 = PERSON_AND_ORGANIZATION_ROLE ( 'classification_officer' ) ;
#123 = ADVANCED_FACE ( 'NONE', ( #145 ), #101, .T. ) ;
#124 = ORIENTED_EDGE ( 'NONE', *, *, #92, .T. ) ;
#125 = EDGE_CURVE ( 'NONE', #35, #93, #69, .T. ) ;
#126 = ORIENTED_EDGE ( 'NONE', *, *, #125, .T. ) ;
#127 = CARTESIAN_POINT ( 'NONE',  ( -10.00000000000000000, 0.000000000000000000, 1.000000000000000000 ) ) ;
#128 = CARTESIAN_POINT ( 'NONE',  ( -10.00000000000000000, 0.000000000000000000, 1.000000000000000000 ) ) ;
#129 = PRODUCT ( 'Web Model 43368_20945', 'Web Model 43368_20945', '', ( #36 ) ) ;
#130 = CC_DESIGN_APPROVAL ( #6, ( #41 ) ) ;
#131 = CC_DESIGN_DATE_AND_TIME_ASSIGNMENT ( #120, #163, ( #41 ) ) ;
#132 = DIRECTION ( 'NONE',  ( 0.000000000000000000, 0.000000000000000000, 1.000000000000000000 ) ) ;
#133 = DIRECTION ( 'NONE',  ( -1.000000000000000000, 0.000000000000000000, 0.000000000000000000 ) ) ;
#134 = PERSON_AND_ORGANIZATION ( #137, #162 ) ;
#135 = CC_DESIGN_PERSON_AND_ORGANIZATION_ASSIGNMENT ( #28, #79, ( #175 ) ) ;
#136 = CALENDAR_DATE ( 2022, 16, 3 ) ;
#137 = PERSON ( 'UNSPECIFIED', 'UNSPECIFIED', 'UNSPECIFIED', ('UNSPECIFIED'), ('UNSPECIFIED'), ('UNSPECIFIED') ) ;
#138 = VECTOR ( 'NONE', #73, 1000.000000000000000 ) ;
#139 = APPROVAL_PERSON_ORGANIZATION ( #116, #152, #50 ) ;
#140 = EDGE_CURVE ( 'NONE', #70, #93, #21, .T. ) ;
#141 = PLANE ( 'NONE',  #49 ) ;
#142 = DIRECTION ( 'NONE',  ( 0.000000000000000000, 0.000000000000000000, 1.000000000000000000 ) ) ;
#143 = DIRECTION ( 'NONE',  ( 1.000000000000000000, 0.000000000000000000, 0.000000000000000000 ) ) ;
#144 = CC_DESIGN_DATE_AND_TIME_ASSIGNMENT ( #91, #148, ( #108 ) ) ;
#145 = FACE_OUTER_BOUND ( 'NONE', #30, .T. ) ;
#146 =( LENGTH_UNIT ( ) NAMED_UNIT ( * ) SI_UNIT ( .MILLI., .METRE. ) );
#147 = AXIS2_PLACEMENT_3D ( 'NONE', #153, #98, #157 ) ;
#148 = DATE_TIME_ROLE ( 'creation_date' ) ;
#149 = CIRCLE ( 'NONE', #155, 10.00000000000000000 ) ;
#150 = CALENDAR_DATE ( 2022, 16, 3 ) ;
#151 = VERTEX_POINT ( 'NONE', #128 ) ;
#152 = APPROVAL ( #170, 'UNSPECIFIED' ) ;
#153 = CARTESIAN_POINT ( 'NONE',  ( 0.000000000000000000, 0.000000000000000000, 1.000000000000000000 ) ) ;
#154 = AXIS2_PLACEMENT_3D ( 'NONE', #89, #171, #51 ) ;
#155 = AXIS2_PLACEMENT_3D ( 'NONE', #160, #132, #117 ) ;
#156 = ORIENTED_EDGE ( 'NONE', *, *, #52, .T. ) ;
#157 = DIRECTION ( 'NONE',  ( 1.000000000000000000, 0.000000000000000000, -0.000000000000000000 ) ) ;
#158 = DIRECTION ( 'NONE',  ( 0.000000000000000000, 0.000000000000000000, 1.000000000000000000 ) ) ;
#159 = DIRECTION ( 'NONE',  ( -0.000000000000000000, -0.000000000000000000, -1.000000000000000000 ) ) ;
#160 = CARTESIAN_POINT ( 'NONE',  ( 0.000000000000000000, 0.000000000000000000, 0.000000000000000000 ) ) ;
#161 = COORDINATED_UNIVERSAL_TIME_OFFSET ( 5, 0, .BEHIND. ) ;
#162 = ORGANIZATION ( 'UNSPECIFIED', 'UNSPECIFIED', '' ) ;
#163 = DATE_TIME_ROLE ( 'classification_date' ) ;
#164 = APPROVAL_STATUS ( 'not_yet_approved' ) ;
#165 = FACE_OUTER_BOUND ( 'NONE', #96, .T. ) ;
#166 = ORIENTED_EDGE ( 'NONE', *, *, #97, .T. ) ;
#167 = ADVANCED_FACE ( 'NONE', ( #61 ), #77, .T. ) ;
#168 = DIRECTION ( 'NONE',  ( -0.000000000000000000, -0.000000000000000000, -1.000000000000000000 ) ) ;
#169 = AXIS2_PLACEMENT_3D ( 'NONE', #100, #37, #143 ) ;
#170 = APPROVAL_STATUS ( 'not_yet_approved' ) ;
#171 = DIRECTION ( 'NONE',  ( 0.000000000000000000, 0.000000000000000000, 1.000000000000000000 ) ) ;
#172 = PERSON_AND_ORGANIZATION ( #137, #162 ) ;
#173 = APPROVAL ( #164, 'UNSPECIFIED' ) ;
#174 = DATE_AND_TIME ( #67, #104 ) ;
#175 = PRODUCT_DEFINITION_FORMATION_WITH_SPECIFIED_SOURCE ( 'ANY', '', #129, .NOT_KNOWN. ) ;
ENDSEC;
END-ISO-10303-21;
