ISO-10303-21;
HEADER;
FILE_DESCRIPTION (( 'STEP AP203' ),
    '1' );
FILE_NAME ('Web Model 46100_46100.step',
    '2017-03-01T20:53:11',
    ( '' ),
    ( '' ),
    'SwSTEP 2.0',
    'SolidWorks 2016',
    '' );
FILE_SCHEMA (( 'CONFIG_CONTROL_DESIGN' ));
ENDSEC;

DATA;
#1 = LINE ( 'NONE', #97, #68 ) ;
#2 = SHAPE_DEFINITION_REPRESENTATION ( #91, #112 ) ;
#3 = APPLICATION_PROTOCOL_DEFINITION ( 'international standard', 'config_control_design', 1994, #5 ) ;
#4 = EDGE_LOOP ( 'NONE', ( #72, #28 ) ) ;
#5 = APPLICATION_CONTEXT ( 'configuration controlled 3d designs of mechanical parts and assemblies' ) ;
#6 = DIRECTION ( 'NONE',  ( 1.000000000000000000, 0.0000000000000000000, 0.0000000000000000000 ) ) ;
#7 = EDGE_CURVE ( 'NONE', #13, #61, #46, .T. ) ;
#8 = AXIS2_PLACEMENT_3D ( 'NONE', #153, #20, #6 ) ;
#9 = ORIENTED_EDGE ( 'NONE', *, *, #130, .T. ) ;
#10 = APPROVAL_PERSON_ORGANIZATION ( #157, #30, #32 ) ;
#11 = CARTESIAN_POINT ( 'NONE',  ( 0.0000000000000000000, 0.0000000000000000000, 0.0000000000000000000 ) ) ;
#12 = DIRECTION ( 'NONE',  ( 1.000000000000000000, 0.0000000000000000000, -0.0000000000000000000 ) ) ;
#13 = VERTEX_POINT ( 'NONE', #14 ) ;
#14 = CARTESIAN_POINT ( 'NONE',  ( 25.39999999999999900, 3.110602869834276900E-015, 0.0000000000000000000 ) ) ;
#15 = MANIFOLD_SOLID_BREP ( 'Boss-Extrude1', #151 ) ;
#16 = DIRECTION ( 'NONE',  ( 0.0000000000000000000, 0.0000000000000000000, 1.000000000000000000 ) ) ;
#17 = APPROVAL_ROLE ( '' ) ;
#18 = CIRCLE ( 'NONE', #79, 25.39999999999999900 ) ;
#19 = DATE_AND_TIME ( #169, #58 ) ;
#20 = DIRECTION ( 'NONE',  ( 0.0000000000000000000, 0.0000000000000000000, 1.000000000000000000 ) ) ;
#21 = EDGE_LOOP ( 'NONE', ( #89, #107 ) ) ;
#22 = CALENDAR_DATE ( 2017, 1, 3 ) ;
#23 = ADVANCED_FACE ( 'NONE', ( #146 ), #143, .T. ) ;
#24 = CALENDAR_DATE ( 2017, 1, 3 ) ;
#25 = EDGE_CURVE ( 'NONE', #141, #13, #1, .T. ) ;
#26 = DIRECTION ( 'NONE',  ( 0.0000000000000000000, 0.0000000000000000000, 1.000000000000000000 ) ) ;
#27 = APPROVAL_PERSON_ORGANIZATION ( #118, #94, #17 ) ;
#28 = ORIENTED_EDGE ( 'NONE', *, *, #7, .F. ) ;
#29 = CARTESIAN_POINT ( 'NONE',  ( 0.0000000000000000000, 0.0000000000000000000, 3.000000000000000000 ) ) ;
#30 = APPROVAL ( #116, 'UNSPECIFIED' ) ;
#31 = LOCAL_TIME ( 15, 53, 11.00000000000000000, #168 ) ;
#32 = APPROVAL_ROLE ( '' ) ;
#33 = ORIENTED_EDGE ( 'NONE', *, *, #25, .F. ) ;
#34 = FACE_OUTER_BOUND ( 'NONE', #4, .T. ) ;
#35 =( LENGTH_UNIT ( ) NAMED_UNIT ( * ) SI_UNIT ( .MILLI., .METRE. ) );
#36 = COORDINATED_UNIVERSAL_TIME_OFFSET ( 5, 0, .BEHIND. ) ;
#37 = PRODUCT ( 'Web Model 46100_46100', 'Web Model 46100_46100', '', ( #150 ) ) ;
#38 = ADVANCED_FACE ( 'NONE', ( #167 ), #126, .T. ) ;
#39 = AXIS2_PLACEMENT_3D ( 'NONE', #29, #81, #125 ) ;
#40 = CC_DESIGN_PERSON_AND_ORGANIZATION_ASSIGNMENT ( #127, #59, ( #75 ) ) ;
#41 = CARTESIAN_POINT ( 'NONE',  ( -25.39999999999999900, 0.0000000000000000000, 3.000000000000000000 ) ) ;
#42 = CC_DESIGN_DATE_AND_TIME_ASSIGNMENT ( #78, #164, ( #75 ) ) ;
#43 = DIRECTION ( 'NONE',  ( 1.000000000000000000, 0.0000000000000000000, 0.0000000000000000000 ) ) ;
#44 = DIRECTION ( 'NONE',  ( -0.0000000000000000000, -0.0000000000000000000, -1.000000000000000000 ) ) ;
#45 = EDGE_LOOP ( 'NONE', ( #33, #50, #9, #121 ) ) ;
#46 = CIRCLE ( 'NONE', #174, 25.39999999999999900 ) ;
#47 = PERSON_AND_ORGANIZATION ( #120, #69 ) ;
#48 = AXIS2_PLACEMENT_3D ( 'NONE', #165, #115, #104 ) ;
#49 =( GEOMETRIC_REPRESENTATION_CONTEXT ( 3 ) GLOBAL_UNCERTAINTY_ASSIGNED_CONTEXT ( ( #76 ) ) GLOBAL_UNIT_ASSIGNED_CONTEXT ( ( #35, #52, #102 ) ) REPRESENTATION_CONTEXT ( 'NONE', 'WORKASPACE' ) );
#50 = ORIENTED_EDGE ( 'NONE', *, *, #106, .F. ) ;
#51 = APPLICATION_PROTOCOL_DEFINITION ( 'international standard', 'config_control_design', 1994, #128 ) ;
#52 =( NAMED_UNIT ( * ) PLANE_ANGLE_UNIT ( ) SI_UNIT ( $, .RADIAN. ) );
#53 = PERSON_AND_ORGANIZATION ( #120, #69 ) ;
#54 = CIRCLE ( 'NONE', #155, 25.39999999999999900 ) ;
#55 = CC_DESIGN_PERSON_AND_ORGANIZATION_ASSIGNMENT ( #53, #73, ( #63 ) ) ;
#56 = CALENDAR_DATE ( 2017, 1, 3 ) ;
#57 = SECURITY_CLASSIFICATION_LEVEL ( 'unclassified' ) ;
#58 = LOCAL_TIME ( 15, 53, 11.00000000000000000, #98 ) ;
#59 = PERSON_AND_ORGANIZATION_ROLE ( 'classification_officer' ) ;
#60 = APPROVAL_STATUS ( 'not_yet_approved' ) ;
#61 = VERTEX_POINT ( 'NONE', #173 ) ;
#62 = FACE_OUTER_BOUND ( 'NONE', #45, .T. ) ;
#63 = PRODUCT_DEFINITION_FORMATION_WITH_SPECIFIED_SOURCE ( 'ANY', '', #37, .NOT_KNOWN. ) ;
#64 = APPROVAL_DATE_TIME ( #123, #87 ) ;
#65 = DIRECTION ( 'NONE',  ( 0.0000000000000000000, 0.0000000000000000000, 1.000000000000000000 ) ) ;
#66 = CARTESIAN_POINT ( 'NONE',  ( 25.39999999999999900, 3.110602869834276900E-015, 3.000000000000000000 ) ) ;
#67 = CARTESIAN_POINT ( 'NONE',  ( 0.0000000000000000000, 0.0000000000000000000, 3.000000000000000000 ) ) ;
#68 = VECTOR ( 'NONE', #44, 1000.000000000000000 ) ;
#69 = ORGANIZATION ( 'UNSPECIFIED', 'UNSPECIFIED', '' ) ;
#70 = CC_DESIGN_DATE_AND_TIME_ASSIGNMENT ( #105, #85, ( #119 ) ) ;
#71 = DIRECTION ( 'NONE',  ( 1.000000000000000000, 0.0000000000000000000, 0.0000000000000000000 ) ) ;
#72 = ORIENTED_EDGE ( 'NONE', *, *, #147, .F. ) ;
#73 = PERSON_AND_ORGANIZATION_ROLE ( 'design_supplier' ) ;
#74 = CC_DESIGN_PERSON_AND_ORGANIZATION_ASSIGNMENT ( #133, #129, ( #63 ) ) ;
#75 = SECURITY_CLASSIFICATION ( '', '', #57 ) ;
#76 = UNCERTAINTY_MEASURE_WITH_UNIT (LENGTH_MEASURE( 1.000000000000000100E-005 ), #35, 'distance_accuracy_value', 'NONE');
#77 = CC_DESIGN_APPROVAL ( #87, ( #119 ) ) ;
#78 = DATE_AND_TIME ( #22, #82 ) ;
#79 = AXIS2_PLACEMENT_3D ( 'NONE', #158, #65, #43 ) ;
#80 = VERTEX_POINT ( 'NONE', #41 ) ;
#81 = DIRECTION ( 'NONE',  ( -0.0000000000000000000, -0.0000000000000000000, -1.000000000000000000 ) ) ;
#82 = LOCAL_TIME ( 15, 53, 11.00000000000000000, #154 ) ;
#83 = LINE ( 'NONE', #114, #132 ) ;
#84 = APPROVAL_STATUS ( 'not_yet_approved' ) ;
#85 = DATE_TIME_ROLE ( 'creation_date' ) ;
#86 = PERSON_AND_ORGANIZATION ( #120, #69 ) ;
#87 = APPROVAL ( #84, 'UNSPECIFIED' ) ;
#88 = AXIS2_PLACEMENT_3D ( 'NONE', #95, #135, #111 ) ;
#89 = ORIENTED_EDGE ( 'NONE', *, *, #106, .T. ) ;
#90 = ADVANCED_FACE ( 'NONE', ( #34 ), #96, .F. ) ;
#91 = PRODUCT_DEFINITION_SHAPE ( 'NONE', 'NONE',  #119 ) ;
#92 = COORDINATED_UNIVERSAL_TIME_OFFSET ( 5, 0, .BEHIND. ) ;
#93 = EDGE_CURVE ( 'NONE', #141, #80, #18, .T. ) ;
#94 = APPROVAL ( #60, 'UNSPECIFIED' ) ;
#95 = CARTESIAN_POINT ( 'NONE',  ( 0.0000000000000000000, 0.0000000000000000000, 3.000000000000000000 ) ) ;
#96 = PLANE ( 'NONE',  #162 ) ;
#97 = CARTESIAN_POINT ( 'NONE',  ( 25.39999999999999900, 3.110602869834276900E-015, 3.000000000000000000 ) ) ;
#98 = COORDINATED_UNIVERSAL_TIME_OFFSET ( 5, 0, .BEHIND. ) ;
#99 = DATE_AND_TIME ( #117, #172 ) ;
#100 = CC_DESIGN_PERSON_AND_ORGANIZATION_ASSIGNMENT ( #86, #163, ( #119 ) ) ;
#101 = DIRECTION ( 'NONE',  ( -0.0000000000000000000, -0.0000000000000000000, -1.000000000000000000 ) ) ;
#102 =( NAMED_UNIT ( * ) SI_UNIT ( $, .STERADIAN. ) SOLID_ANGLE_UNIT ( ) );
#103 = ORIENTED_EDGE ( 'NONE', *, *, #130, .F. ) ;
#104 = DIRECTION ( 'NONE',  ( 1.000000000000000000, 0.0000000000000000000, 0.0000000000000000000 ) ) ;
#105 = DATE_AND_TIME ( #56, #31 ) ;
#106 = EDGE_CURVE ( 'NONE', #80, #141, #54, .T. ) ;
#107 = ORIENTED_EDGE ( 'NONE', *, *, #93, .T. ) ;
#108 = LOCAL_TIME ( 15, 53, 11.00000000000000000, #36 ) ;
#109 = DESIGN_CONTEXT ( 'detailed design', #128, 'design' ) ;
#110 = CC_DESIGN_PERSON_AND_ORGANIZATION_ASSIGNMENT ( #144, #142, ( #37 ) ) ;
#111 = DIRECTION ( 'NONE',  ( -1.000000000000000000, 0.0000000000000000000, 0.0000000000000000000 ) ) ;
#112 = ADVANCED_BREP_SHAPE_REPRESENTATION ( 'Web Model 46100_46100', ( #15, #48 ), #49 ) ;
#113 = CC_DESIGN_APPROVAL ( #30, ( #63 ) ) ;
#114 = CARTESIAN_POINT ( 'NONE',  ( -25.39999999999999900, 0.0000000000000000000, 3.000000000000000000 ) ) ;
#115 = DIRECTION ( 'NONE',  ( 0.0000000000000000000, 0.0000000000000000000, 1.000000000000000000 ) ) ;
#116 = APPROVAL_STATUS ( 'not_yet_approved' ) ;
#117 = CALENDAR_DATE ( 2017, 1, 3 ) ;
#118 = PERSON_AND_ORGANIZATION ( #120, #69 ) ;
#119 = PRODUCT_DEFINITION ( 'UNKNOWN', '', #63, #109 ) ;
#120 = PERSON ( 'UNSPECIFIED', 'UNSPECIFIED', 'UNSPECIFIED', ('UNSPECIFIED'), ('UNSPECIFIED'), ('UNSPECIFIED') ) ;
#121 = ORIENTED_EDGE ( 'NONE', *, *, #147, .T. ) ;
#122 = ADVANCED_FACE ( 'NONE', ( #62 ), #156, .T. ) ;
#123 = DATE_AND_TIME ( #24, #108 ) ;
#124 = DIRECTION ( 'NONE',  ( 0.0000000000000000000, 0.0000000000000000000, 1.000000000000000000 ) ) ;
#125 = DIRECTION ( 'NONE',  ( -1.000000000000000000, 0.0000000000000000000, 0.0000000000000000000 ) ) ;
#126 = PLANE ( 'NONE',  #139 ) ;
#127 = PERSON_AND_ORGANIZATION ( #120, #69 ) ;
#128 = APPLICATION_CONTEXT ( 'configuration controlled 3d designs of mechanical parts and assemblies' ) ;
#129 = PERSON_AND_ORGANIZATION_ROLE ( 'creator' ) ;
#130 = EDGE_CURVE ( 'NONE', #80, #61, #83, .T. ) ;
#131 = ORIENTED_EDGE ( 'NONE', *, *, #7, .T. ) ;
#132 = VECTOR ( 'NONE', #101, 1000.000000000000000 ) ;
#133 = PERSON_AND_ORGANIZATION ( #120, #69 ) ;
#134 = DIRECTION ( 'NONE',  ( 1.000000000000000000, 0.0000000000000000000, -0.0000000000000000000 ) ) ;
#135 = DIRECTION ( 'NONE',  ( -0.0000000000000000000, -0.0000000000000000000, -1.000000000000000000 ) ) ;
#136 = APPROVAL_DATE_TIME ( #19, #94 ) ;
#137 = ORIENTED_EDGE ( 'NONE', *, *, #25, .T. ) ;
#138 = APPROVAL_DATE_TIME ( #99, #30 ) ;
#139 = AXIS2_PLACEMENT_3D ( 'NONE', #67, #26, #12 ) ;
#140 = APPROVAL_ROLE ( '' ) ;
#141 = VERTEX_POINT ( 'NONE', #66 ) ;
#142 = PERSON_AND_ORGANIZATION_ROLE ( 'design_owner' ) ;
#143 = CYLINDRICAL_SURFACE ( 'NONE', #39, 25.39999999999999900 ) ;
#144 = PERSON_AND_ORGANIZATION ( #120, #69 ) ;
#145 = EDGE_LOOP ( 'NONE', ( #166, #137, #131, #103 ) ) ;
#146 = FACE_OUTER_BOUND ( 'NONE', #145, .T. ) ;
#147 = EDGE_CURVE ( 'NONE', #61, #13, #171, .T. ) ;
#148 = DIRECTION ( 'NONE',  ( 1.000000000000000000, 0.0000000000000000000, 0.0000000000000000000 ) ) ;
#149 = APPROVAL_PERSON_ORGANIZATION ( #47, #87, #140 ) ;
#150 = MECHANICAL_CONTEXT ( 'NONE', #5, 'mechanical' ) ;
#151 = CLOSED_SHELL ( 'NONE', ( #23, #122, #38, #90 ) ) ;
#152 = CC_DESIGN_APPROVAL ( #94, ( #75 ) ) ;
#153 = CARTESIAN_POINT ( 'NONE',  ( 0.0000000000000000000, 0.0000000000000000000, 0.0000000000000000000 ) ) ;
#154 = COORDINATED_UNIVERSAL_TIME_OFFSET ( 5, 0, .BEHIND. ) ;
#155 = AXIS2_PLACEMENT_3D ( 'NONE', #175, #159, #71 ) ;
#156 = CYLINDRICAL_SURFACE ( 'NONE', #88, 25.39999999999999900 ) ;
#157 = PERSON_AND_ORGANIZATION ( #120, #69 ) ;
#158 = CARTESIAN_POINT ( 'NONE',  ( 0.0000000000000000000, 0.0000000000000000000, 3.000000000000000000 ) ) ;
#159 = DIRECTION ( 'NONE',  ( 0.0000000000000000000, 0.0000000000000000000, 1.000000000000000000 ) ) ;
#160 = CC_DESIGN_SECURITY_CLASSIFICATION ( #75, ( #63 ) ) ;
#161 = CARTESIAN_POINT ( 'NONE',  ( 0.0000000000000000000, 0.0000000000000000000, 0.0000000000000000000 ) ) ;
#162 = AXIS2_PLACEMENT_3D ( 'NONE', #11, #124, #134 ) ;
#163 = PERSON_AND_ORGANIZATION_ROLE ( 'creator' ) ;
#164 = DATE_TIME_ROLE ( 'classification_date' ) ;
#165 = CARTESIAN_POINT ( 'NONE',  ( 0.0000000000000000000, 0.0000000000000000000, 0.0000000000000000000 ) ) ;
#166 = ORIENTED_EDGE ( 'NONE', *, *, #93, .F. ) ;
#167 = FACE_OUTER_BOUND ( 'NONE', #21, .T. ) ;
#168 = COORDINATED_UNIVERSAL_TIME_OFFSET ( 5, 0, .BEHIND. ) ;
#169 = CALENDAR_DATE ( 2017, 1, 3 ) ;
#170 = PRODUCT_RELATED_PRODUCT_CATEGORY ( 'detail', '', ( #37 ) ) ;
#171 = CIRCLE ( 'NONE', #8, 25.39999999999999900 ) ;
#172 = LOCAL_TIME ( 15, 53, 11.00000000000000000, #92 ) ;
#173 = CARTESIAN_POINT ( 'NONE',  ( -25.39999999999999900, 0.0000000000000000000, 0.0000000000000000000 ) ) ;
#174 = AXIS2_PLACEMENT_3D ( 'NONE', #161, #16, #148 ) ;
#175 = CARTESIAN_POINT ( 'NONE',  ( 0.0000000000000000000, 0.0000000000000000000, 3.000000000000000000 ) ) ;
ENDSEC;
END-ISO-10303-21;
