ISO-10303-21;
HEADER;
FILE_DESCRIPTION (( 'STEP AP214' ),
    '1' );
FILE_NAME ('4819-E0W.STEP',
    '2009-12-21T17:05:17',
    ( ' ' ),
    ( ' ' ),
    'SwSTEP 2.0',
    'SolidWorks 2009',
    '' );
FILE_SCHEMA (( 'AUTOMOTIVE_DESIGN' ));
ENDSEC;

DATA;
#1 = EDGE_CURVE ( 'NONE', #70, #56, #105, .T. ) ;
#2 = EDGE_LOOP ( 'NONE', ( #7, #6, #19, #21, #17, #10 ) ) ;
#3 = ADVANCED_FACE ( 'NONE', ( #90 ), #113, .T. ) ;
#4 = ORIENTED_EDGE ( 'NONE', *, *, #8, .F. ) ;
#5 = VERTEX_POINT ( 'NONE', #111 ) ;
#6 = ORIENTED_EDGE ( 'NONE', *, *, #9, .T. ) ;
#7 = ORIENTED_EDGE ( 'NONE', *, *, #8, .T. ) ;
#8 = EDGE_CURVE ( 'NONE', #61, #70, #103, .T. ) ;
#9 = EDGE_CURVE ( 'NONE', #70, #5, #88, .T. ) ;
#10 = ORIENTED_EDGE ( 'NONE', *, *, #29, .F. ) ;
#11 = EDGE_LOOP ( 'NONE', ( #68, #37, #36, #38 ) ) ;
#12 = EDGE_CURVE ( 'NONE', #16, #26, #74, .T. ) ;
#13 = VERTEX_POINT ( 'NONE', #137 ) ;
#14 = VERTEX_POINT ( 'NONE', #144 ) ;
#15 = ORIENTED_EDGE ( 'NONE', *, *, #12, .F. ) ;
#16 = VERTEX_POINT ( 'NONE', #133 ) ;
#17 = ORIENTED_EDGE ( 'NONE', *, *, #23, .F. ) ;
#18 = EDGE_CURVE ( 'NONE', #5, #13, #147, .T. ) ;
#19 = ORIENTED_EDGE ( 'NONE', *, *, #18, .T. ) ;
#20 = VERTEX_POINT ( 'NONE', #145 ) ;
#21 = ORIENTED_EDGE ( 'NONE', *, *, #25, .F. ) ;
#22 = ORIENTED_EDGE ( 'NONE', *, *, #25, .T. ) ;
#23 = EDGE_CURVE ( 'NONE', #14, #16, #141, .T. ) ;
#24 = EDGE_LOOP ( 'NONE', ( #22, #33, #44, #15 ) ) ;
#25 = EDGE_CURVE ( 'NONE', #16, #13, #128, .T. ) ;
#26 = VERTEX_POINT ( 'NONE', #143 ) ;
#27 = EDGE_CURVE ( 'NONE', #20, #26, #135, .T. ) ;
#28 = ADVANCED_FACE ( 'NONE', ( #118 ), #185, .T. ) ;
#29 = EDGE_CURVE ( 'NONE', #61, #14, #178, .T. ) ;
#30 = EDGE_CURVE ( 'NONE', #5, #62, #152, .T. ) ;
#31 = ORIENTED_EDGE ( 'NONE', *, *, #29, .T. ) ;
#32 = EDGE_CURVE ( 'NONE', #20, #14, #170, .T. ) ;
#33 = ORIENTED_EDGE ( 'NONE', *, *, #45, .T. ) ;
#34 = CLOSED_SHELL ( 'NONE', ( #58, #3, #28, #39, #46, #47 ) ) ;
#35 = ORIENTED_EDGE ( 'NONE', *, *, #32, .F. ) ;
#36 = ORIENTED_EDGE ( 'NONE', *, *, #23, .T. ) ;
#37 = ORIENTED_EDGE ( 'NONE', *, *, #32, .T. ) ;
#38 = ORIENTED_EDGE ( 'NONE', *, *, #12, .T. ) ;
#39 = ADVANCED_FACE ( 'NONE', ( #191 ), #154, .T. ) ;
#40 = ORIENTED_EDGE ( 'NONE', *, *, #63, .T. ) ;
#41 = EDGE_LOOP ( 'NONE', ( #42, #43, #40, #31, #35, #50 ) ) ;
#42 = ORIENTED_EDGE ( 'NONE', *, *, #18, .F. ) ;
#43 = ORIENTED_EDGE ( 'NONE', *, *, #30, .T. ) ;
#44 = ORIENTED_EDGE ( 'NONE', *, *, #27, .T. ) ;
#45 = EDGE_CURVE ( 'NONE', #13, #20, #217, .T. ) ;
#46 = ADVANCED_FACE ( 'NONE', ( #247 ), #205, .T. ) ;
#47 = ADVANCED_FACE ( 'NONE', ( #237 ), #196, .F. ) ;
#48 = ORIENTED_EDGE ( 'NONE', *, *, #30, .F. ) ;
#49 = ORIENTED_EDGE ( 'NONE', *, *, #1, .T. ) ;
#50 = ORIENTED_EDGE ( 'NONE', *, *, #45, .F. ) ;
#51 = EDGE_LOOP ( 'NONE', ( #66, #67, #59, #4 ) ) ;
#52 = EDGE_LOOP ( 'NONE', ( #57, #48, #54, #49 ) ) ;
#53 = MANIFOLD_SOLID_BREP ( 'NONE', #34 ) ;
#54 = ORIENTED_EDGE ( 'NONE', *, *, #9, .F. ) ;
#55 = EDGE_CURVE ( 'NONE', #62, #56, #288, .T. ) ;
#56 = VERTEX_POINT ( 'NONE', #254 ) ;
#57 = ORIENTED_EDGE ( 'NONE', *, *, #55, .F. ) ;
#58 = ADVANCED_FACE ( 'NONE', ( #259 ), #284, .F. ) ;
#59 = ORIENTED_EDGE ( 'NONE', *, *, #1, .F. ) ;
#60 = PRESENTATION_LAYER_ASSIGNMENT (  '', '', ( #120 ) ) ;
#61 = VERTEX_POINT ( 'NONE', #266 ) ;
#62 = VERTEX_POINT ( 'NONE', #286 ) ;
#63 = EDGE_CURVE ( 'NONE', #62, #61, #269, .T. ) ;
#64 = DIRECTION ( 'NONE',  ( 0.0000000000000000000, 0.0000000000000000000, -1.000000000000000000 ) ) ;
#65 = MECHANICAL_DESIGN_GEOMETRIC_PRESENTATION_REPRESENTATION (  '', ( #120 ), #179 ) ;
#66 = ORIENTED_EDGE ( 'NONE', *, *, #63, .F. ) ;
#67 = ORIENTED_EDGE ( 'NONE', *, *, #55, .T. ) ;
#68 = ORIENTED_EDGE ( 'NONE', *, *, #27, .F. ) ;
#69 = UNCERTAINTY_MEASURE_WITH_UNIT (LENGTH_MEASURE( 1.000000000000000100E-005 ), #268, 'distance_accuracy_value', 'NONE');
#70 = VERTEX_POINT ( 'NONE', #280 ) ;
#71 =( NAMED_UNIT ( * ) SI_UNIT ( $, .STERADIAN. ) SOLID_ANGLE_UNIT ( ) );
#72 = DIRECTION ( 'NONE',  ( 1.000000000000000000, 0.0000000000000000000, 0.0000000000000000000 ) ) ;
#73 = AXIS2_PLACEMENT_3D ( 'NONE', #82, #72, #64 ) ;
#74 = CIRCLE ( 'NONE', #73, 100.8900000000000000 ) ;
#75 =( LENGTH_UNIT ( ) NAMED_UNIT ( * ) SI_UNIT ( .MILLI., .METRE. ) );
#76 =( LENGTH_UNIT ( ) NAMED_UNIT ( * ) SI_UNIT ( .MILLI., .METRE. ) );
#77 = FILL_AREA_STYLE ('',( #93 ) ) ;
#78 = CARTESIAN_POINT ( 'NONE',  ( 0.0000000000000000000, 0.0000000000000000000, -1.399979508198180500 ) ) ;
#79 = DIRECTION ( 'NONE',  ( 1.000000000000000000, 0.0000000000000000000, 0.0000000000000000000 ) ) ;
#80 =( GEOMETRIC_REPRESENTATION_CONTEXT ( 3 ) GLOBAL_UNCERTAINTY_ASSIGNED_CONTEXT ( ( #69 ) ) GLOBAL_UNIT_ASSIGNED_CONTEXT ( ( #268, #261, #260 ) ) REPRESENTATION_CONTEXT ( 'NONE', 'WORKASPACE' ) );
#81 = STYLED_ITEM ( 'NONE', ( #96 ), #3 ) ;
#82 = CARTESIAN_POINT ( 'NONE',  ( 0.0000000000000000000, 0.0000000000000000000, -99.49002049180182900 ) ) ;
#83 = DIRECTION ( 'NONE',  ( 1.000000000000000000, 0.0000000000000000000, 0.0000000000000000000 ) ) ;
#84 =( GEOMETRIC_REPRESENTATION_CONTEXT ( 3 ) GLOBAL_UNCERTAINTY_ASSIGNED_CONTEXT ( ( #104 ) ) GLOBAL_UNIT_ASSIGNED_CONTEXT ( ( #76, #85, #71 ) ) REPRESENTATION_CONTEXT ( 'NONE', 'WORKASPACE' ) );
#85 =( NAMED_UNIT ( * ) PLANE_ANGLE_UNIT ( ) SI_UNIT ( $, .RADIAN. ) );
#86 = DIRECTION ( 'NONE',  ( -0.0000000000000000000, -0.0000000000000000000, 1.000000000000000000 ) ) ;
#87 = AXIS2_PLACEMENT_3D ( 'NONE', #78, #86, #83 ) ;
#88 = CIRCLE ( 'NONE', #87, 12.69999999999999900 ) ;
#89 = MECHANICAL_DESIGN_GEOMETRIC_PRESENTATION_REPRESENTATION (  '', ( #81 ), #84 ) ;
#90 = FACE_OUTER_BOUND ( 'NONE', #2, .T. ) ;
#91 = PRESENTATION_LAYER_ASSIGNMENT (  '', '', ( #81 ) ) ;
#92 = SURFACE_STYLE_USAGE ( .BOTH. , #109 ) ;
#93 = FILL_AREA_STYLE_COLOUR ( '', #106 ) ;
#94 = AXIS2_PLACEMENT_3D ( 'NONE', #112, #108, #107 ) ;
#95 = SURFACE_STYLE_FILL_AREA ( #77 ) ;
#96 = PRESENTATION_STYLE_ASSIGNMENT (( #92 ) ) ;
#97 = DIRECTION ( 'NONE',  ( 1.000000000000000000, 0.0000000000000000000, 0.0000000000000000000 ) ) ;
#98 = DIRECTION ( 'NONE',  ( -0.0000000000000000000, -0.0000000000000000000, 1.000000000000000000 ) ) ;
#99 = AXIS2_PLACEMENT_3D ( 'NONE', #110, #98, #97 ) ;
#100 = DIRECTION ( 'NONE',  ( -0.0000000000000000000, -0.0000000000000000000, 1.000000000000000000 ) ) ;
#101 = CARTESIAN_POINT ( 'NONE',  ( 0.0000000000000000000, 0.0000000000000000000, -1.399979508198180500 ) ) ;
#102 = AXIS2_PLACEMENT_3D ( 'NONE', #101, #100, #79 ) ;
#103 = CIRCLE ( 'NONE', #102, 12.69999999999999900 ) ;
#104 = UNCERTAINTY_MEASURE_WITH_UNIT (LENGTH_MEASURE( 1.000000000000000100E-005 ), #76, 'distance_accuracy_value', 'NONE');
#105 = CIRCLE ( 'NONE', #94, 288.1999999999999900 ) ;
#106 = COLOUR_RGB ( '',0.9568627450980391500, 0.9490196078431372100, 0.9607843137254902200 ) ;
#107 = DIRECTION ( 'NONE',  ( 0.0000000000000000000, 0.0000000000000000000, -1.000000000000000000 ) ) ;
#108 = DIRECTION ( 'NONE',  ( 1.000000000000000000, -0.0000000000000000000, 0.0000000000000000000 ) ) ;
#109 = SURFACE_SIDE_STYLE ('',( #95 ) ) ;
#110 = CARTESIAN_POINT ( 'NONE',  ( 0.0000000000000000000, 0.0000000000000000000, 9.045083263039238400 ) ) ;
#111 = CARTESIAN_POINT ( 'NONE',  ( -12.69999999999999900, 1.555250069354419100E-015, -1.399979508198180500 ) ) ;
#112 = CARTESIAN_POINT ( 'NONE',  ( 0.0000000000000000000, 0.0000000000000000000, -289.3200204918018100 ) ) ;
#113 = CYLINDRICAL_SURFACE ( 'NONE', #99, 12.69999999999999900 ) ;
#114 = DIRECTION ( 'NONE',  ( -1.224606353822377300E-016, -1.000000000000000000, 0.0000000000000000000 ) ) ;
#115 = DIRECTION ( 'NONE',  ( -1.000000000000000000, 1.224606353822377300E-016, 0.0000000000000000000 ) ) ;
#116 = CARTESIAN_POINT ( 'NONE',  ( 0.0000000000000000000, 0.0000000000000000000, -99.49002049180182900 ) ) ;
#117 = AXIS2_PLACEMENT_3D ( 'NONE', #116, #115, #114 ) ;
#118 = FACE_OUTER_BOUND ( 'NONE', #24, .T. ) ;
#119 = PRODUCT_CONTEXT ( 'NONE', #298, 'mechanical' ) ;
#120 = STYLED_ITEM ( 'NONE', ( #121 ), #28 ) ;
#121 = PRESENTATION_STYLE_ASSIGNMENT (( #122 ) ) ;
#122 = SURFACE_STYLE_USAGE ( .BOTH. , #123 ) ;
#123 = SURFACE_SIDE_STYLE ('',( #124 ) ) ;
#124 = SURFACE_STYLE_FILL_AREA ( #125 ) ;
#125 = FILL_AREA_STYLE ('',( #126 ) ) ;
#126 = FILL_AREA_STYLE_COLOUR ( '', #127 ) ;
#127 = COLOUR_RGB ( '',0.9568627450980391500, 0.9490196078431372100, 0.9607843137254902200 ) ;
#128 = CIRCLE ( 'NONE', #140, 12.70000000000000100 ) ;
#129 = DIRECTION ( 'NONE',  ( -0.0000000000000000000, -0.0000000000000000000, 1.000000000000000000 ) ) ;
#130 = VECTOR ( 'NONE', #134, 1000.000000000000000 ) ;
#131 = DIRECTION ( 'NONE',  ( 1.000000000000000000, 0.0000000000000000000, 0.0000000000000000000 ) ) ;
#132 = CARTESIAN_POINT ( 'NONE',  ( -12.69999999999999900, 1.555250069354419100E-015, 9.045083263039238400 ) ) ;
#133 = CARTESIAN_POINT ( 'NONE',  ( 0.0000000000000000000, 12.69999999999999200, 0.5974517512316633900 ) ) ;
#134 = DIRECTION ( 'NONE',  ( -0.0000000000000000000, -0.0000000000000000000, 1.000000000000000000 ) ) ;
#135 = CIRCLE ( 'NONE', #117, 100.8900000000000000 ) ;
#136 = DIRECTION ( 'NONE',  ( -0.0000000000000000000, -0.0000000000000000000, 1.000000000000000000 ) ) ;
#137 = CARTESIAN_POINT ( 'NONE',  ( -12.70000000000000300, 1.555250069354419500E-015, 0.5974517512316677200 ) ) ;
#138 = AXIS2_PLACEMENT_3D ( 'NONE', #146, #129, #142 ) ;
#139 = CARTESIAN_POINT ( 'NONE',  ( 0.0000000000000000000, 0.0000000000000000000, 0.5974517512316677200 ) ) ;
#140 = AXIS2_PLACEMENT_3D ( 'NONE', #139, #136, #131 ) ;
#141 = CIRCLE ( 'NONE', #138, 12.70000000000000100 ) ;
#142 = DIRECTION ( 'NONE',  ( 1.000000000000000000, 0.0000000000000000000, 0.0000000000000000000 ) ) ;
#143 = CARTESIAN_POINT ( 'NONE',  ( 0.0000000000000000000, 6.177526751856982300E-015, 1.399979508198173600 ) ) ;
#144 = CARTESIAN_POINT ( 'NONE',  ( 12.70000000000000300, 0.0000000000000000000, 0.5974517512316677200 ) ) ;
#145 = CARTESIAN_POINT ( 'NONE',  ( -1.555250069354418300E-015, -12.69999999999999200, 0.5974517512316633900 ) ) ;
#146 = CARTESIAN_POINT ( 'NONE',  ( 0.0000000000000000000, 0.0000000000000000000, 0.5974517512316677200 ) ) ;
#147 = LINE ( 'NONE', #132, #130 ) ;
#148 = DIRECTION ( 'NONE',  ( 1.000000000000000000, 0.0000000000000000000, 0.0000000000000000000 ) ) ;
#149 = DIRECTION ( 'NONE',  ( -0.0000000000000000000, -0.0000000000000000000, 1.000000000000000000 ) ) ;
#150 = CARTESIAN_POINT ( 'NONE',  ( 0.0000000000000000000, 0.0000000000000000000, -1.399979508198180500 ) ) ;
#151 = AXIS2_PLACEMENT_3D ( 'NONE', #150, #149, #148 ) ;
#152 = CIRCLE ( 'NONE', #151, 12.69999999999999900 ) ;
#153 =( NAMED_UNIT ( * ) PLANE_ANGLE_UNIT ( ) SI_UNIT ( $, .RADIAN. ) );
#154 = SPHERICAL_SURFACE ( 'NONE', #156, 100.8900000000000000 ) ;
#155 = CARTESIAN_POINT ( 'NONE',  ( 0.0000000000000000000, 0.0000000000000000000, -99.49002049180182900 ) ) ;
#156 = AXIS2_PLACEMENT_3D ( 'NONE', #155, #181, #159 ) ;
#157 = DIRECTION ( 'NONE',  ( 0.0000000000000000000, 1.000000000000000000, 0.0000000000000000000 ) ) ;
#158 = DIRECTION ( 'NONE',  ( -1.000000000000000000, 0.0000000000000000000, 0.0000000000000000000 ) ) ;
#159 = DIRECTION ( 'NONE',  ( 0.0000000000000000000, 1.000000000000000000, 0.0000000000000000000 ) ) ;
#160 = UNCERTAINTY_MEASURE_WITH_UNIT (LENGTH_MEASURE( 1.000000000000000100E-005 ), #75, 'distance_accuracy_value', 'NONE');
#161 =( NAMED_UNIT ( * ) PLANE_ANGLE_UNIT ( ) SI_UNIT ( $, .RADIAN. ) );
#162 =( NAMED_UNIT ( * ) SI_UNIT ( $, .STERADIAN. ) SOLID_ANGLE_UNIT ( ) );
#163 = DIRECTION ( 'NONE',  ( -0.0000000000000000000, -0.0000000000000000000, 1.000000000000000000 ) ) ;
#164 = MECHANICAL_DESIGN_GEOMETRIC_PRESENTATION_REPRESENTATION (  '', ( #166 ), #182 ) ;
#165 = PRESENTATION_LAYER_ASSIGNMENT (  '', '', ( #166 ) ) ;
#166 = STYLED_ITEM ( 'NONE', ( #167 ), #39 ) ;
#167 = PRESENTATION_STYLE_ASSIGNMENT (( #173 ) ) ;
#168 = CARTESIAN_POINT ( 'NONE',  ( 0.0000000000000000000, 0.0000000000000000000, 0.5974517512316677200 ) ) ;
#169 = AXIS2_PLACEMENT_3D ( 'NONE', #168, #188, #187 ) ;
#170 = CIRCLE ( 'NONE', #169, 12.70000000000000100 ) ;
#171 = UNCERTAINTY_MEASURE_WITH_UNIT (LENGTH_MEASURE( 1.000000000000000100E-005 ), #180, 'distance_accuracy_value', 'NONE');
#172 =( NAMED_UNIT ( * ) SI_UNIT ( $, .STERADIAN. ) SOLID_ANGLE_UNIT ( ) );
#173 = SURFACE_STYLE_USAGE ( .BOTH. , #174 ) ;
#174 = SURFACE_SIDE_STYLE ('',( #175 ) ) ;
#175 = SURFACE_STYLE_FILL_AREA ( #176 ) ;
#176 = FILL_AREA_STYLE ('',( #186 ) ) ;
#177 = COLOUR_RGB ( '',0.9568627450980391500, 0.9490196078431372100, 0.9607843137254902200 ) ;
#178 = LINE ( 'NONE', #190, #189 ) ;
#179 =( GEOMETRIC_REPRESENTATION_CONTEXT ( 3 ) GLOBAL_UNCERTAINTY_ASSIGNED_CONTEXT ( ( #160 ) ) GLOBAL_UNIT_ASSIGNED_CONTEXT ( ( #75, #161, #162 ) ) REPRESENTATION_CONTEXT ( 'NONE', 'WORKASPACE' ) );
#180 =( LENGTH_UNIT ( ) NAMED_UNIT ( * ) SI_UNIT ( .MILLI., .METRE. ) );
#181 = DIRECTION ( 'NONE',  ( -1.000000000000000000, 0.0000000000000000000, 0.0000000000000000000 ) ) ;
#182 =( GEOMETRIC_REPRESENTATION_CONTEXT ( 3 ) GLOBAL_UNCERTAINTY_ASSIGNED_CONTEXT ( ( #171 ) ) GLOBAL_UNIT_ASSIGNED_CONTEXT ( ( #180, #153, #172 ) ) REPRESENTATION_CONTEXT ( 'NONE', 'WORKASPACE' ) );
#183 = CARTESIAN_POINT ( 'NONE',  ( 0.0000000000000000000, 0.0000000000000000000, -99.49002049180182900 ) ) ;
#184 = AXIS2_PLACEMENT_3D ( 'NONE', #183, #158, #157 ) ;
#185 = SPHERICAL_SURFACE ( 'NONE', #184, 100.8900000000000000 ) ;
#186 = FILL_AREA_STYLE_COLOUR ( '', #177 ) ;
#187 = DIRECTION ( 'NONE',  ( 1.000000000000000000, 0.0000000000000000000, 0.0000000000000000000 ) ) ;
#188 = DIRECTION ( 'NONE',  ( -0.0000000000000000000, -0.0000000000000000000, 1.000000000000000000 ) ) ;
#189 = VECTOR ( 'NONE', #163, 1000.000000000000000 ) ;
#190 = CARTESIAN_POINT ( 'NONE',  ( 12.69999999999999900, 0.0000000000000000000, 9.045083263039238400 ) ) ;
#191 = FACE_OUTER_BOUND ( 'NONE', #11, .T. ) ;
#192 =( LENGTH_UNIT ( ) NAMED_UNIT ( * ) SI_UNIT ( .MILLI., .METRE. ) );
#193 = MECHANICAL_DESIGN_GEOMETRIC_PRESENTATION_REPRESENTATION (  '', ( #216 ), #246 ) ;
#194 = CARTESIAN_POINT ( 'NONE',  ( 0.0000000000000000000, 0.0000000000000000000, -289.3200204918018100 ) ) ;
#195 = AXIS2_PLACEMENT_3D ( 'NONE', #194, #230, #245 ) ;
#196 = SPHERICAL_SURFACE ( 'NONE', #195, 288.1999999999999900 ) ;
#197 = FILL_AREA_STYLE ('',( #198 ) ) ;
#198 = FILL_AREA_STYLE_COLOUR ( '', #229 ) ;
#199 = UNCERTAINTY_MEASURE_WITH_UNIT (LENGTH_MEASURE( 1.000000000000000100E-005 ), #214, 'distance_accuracy_value', 'NONE');
#200 =( NAMED_UNIT ( * ) PLANE_ANGLE_UNIT ( ) SI_UNIT ( $, .RADIAN. ) );
#201 = PRESENTATION_STYLE_ASSIGNMENT (( #202 ) ) ;
#202 = SURFACE_STYLE_USAGE ( .BOTH. , #203 ) ;
#203 = SURFACE_SIDE_STYLE ('',( #220 ) ) ;
#204 = AXIS2_PLACEMENT_3D ( 'NONE', #235, #234, #233 ) ;
#205 = CYLINDRICAL_SURFACE ( 'NONE', #204, 12.69999999999999900 ) ;
#206 = DIRECTION ( 'NONE',  ( -0.0000000000000000000, -0.0000000000000000000, 1.000000000000000000 ) ) ;
#207 = MECHANICAL_DESIGN_GEOMETRIC_PRESENTATION_REPRESENTATION (  '', ( #209 ), #210 ) ;
#208 = PRESENTATION_LAYER_ASSIGNMENT (  '', '', ( #209 ) ) ;
#209 = STYLED_ITEM ( 'NONE', ( #201 ), #47 ) ;
#210 =( GEOMETRIC_REPRESENTATION_CONTEXT ( 3 ) GLOBAL_UNCERTAINTY_ASSIGNED_CONTEXT ( ( #223 ) ) GLOBAL_UNIT_ASSIGNED_CONTEXT ( ( #192, #215, #224 ) ) REPRESENTATION_CONTEXT ( 'NONE', 'WORKASPACE' ) );
#211 = SURFACE_STYLE_USAGE ( .BOTH. , #248 ) ;
#212 =( LENGTH_UNIT ( ) NAMED_UNIT ( * ) SI_UNIT ( .MILLI., .METRE. ) );
#213 = MECHANICAL_DESIGN_GEOMETRIC_PRESENTATION_REPRESENTATION (  '', ( #239 ), #253 ) ;
#214 =( LENGTH_UNIT ( ) NAMED_UNIT ( * ) SI_UNIT ( .MILLI., .METRE. ) );
#215 =( NAMED_UNIT ( * ) PLANE_ANGLE_UNIT ( ) SI_UNIT ( $, .RADIAN. ) );
#216 = STYLED_ITEM ( 'NONE', ( #228 ), #46 ) ;
#217 = CIRCLE ( 'NONE', #249, 12.70000000000000100 ) ;
#218 =( NAMED_UNIT ( * ) SI_UNIT ( $, .STERADIAN. ) SOLID_ANGLE_UNIT ( ) );
#219 =( NAMED_UNIT ( * ) PLANE_ANGLE_UNIT ( ) SI_UNIT ( $, .RADIAN. ) );
#220 = SURFACE_STYLE_FILL_AREA ( #221 ) ;
#221 = FILL_AREA_STYLE ('',( #222 ) ) ;
#222 = FILL_AREA_STYLE_COLOUR ( '', #236 ) ;
#223 = UNCERTAINTY_MEASURE_WITH_UNIT (LENGTH_MEASURE( 1.000000000000000100E-005 ), #192, 'distance_accuracy_value', 'NONE');
#224 =( NAMED_UNIT ( * ) SI_UNIT ( $, .STERADIAN. ) SOLID_ANGLE_UNIT ( ) );
#225 =( NAMED_UNIT ( * ) SI_UNIT ( $, .STERADIAN. ) SOLID_ANGLE_UNIT ( ) );
#226 = CARTESIAN_POINT ( 'NONE',  ( 0.0000000000000000000, 0.0000000000000000000, 0.5974517512316677200 ) ) ;
#227 = PRESENTATION_LAYER_ASSIGNMENT (  '', '', ( #216 ) ) ;
#228 = PRESENTATION_STYLE_ASSIGNMENT (( #211 ) ) ;
#229 = COLOUR_RGB ( '',0.9568627450980391500, 0.9490196078431372100, 0.9607843137254902200 ) ;
#230 = DIRECTION ( 'NONE',  ( -1.000000000000000000, 0.0000000000000000000, 0.0000000000000000000 ) ) ;
#231 = FILL_AREA_STYLE_COLOUR ( '', #232 ) ;
#232 = COLOUR_RGB ( '',0.7960784313725489700, 0.8235294117647058400, 0.9372549019607843100 ) ;
#233 = DIRECTION ( 'NONE',  ( 1.000000000000000000, 0.0000000000000000000, 0.0000000000000000000 ) ) ;
#234 = DIRECTION ( 'NONE',  ( -0.0000000000000000000, -0.0000000000000000000, 1.000000000000000000 ) ) ;
#235 = CARTESIAN_POINT ( 'NONE',  ( 0.0000000000000000000, 0.0000000000000000000, 9.045083263039238400 ) ) ;
#236 = COLOUR_RGB ( '',0.9568627450980391500, 0.9490196078431372100, 0.9607843137254902200 ) ;
#237 = FACE_OUTER_BOUND ( 'NONE', #52, .T. ) ;
#238 = PRESENTATION_LAYER_ASSIGNMENT (  '', '', ( #239 ) ) ;
#239 = STYLED_ITEM ( 'NONE', ( #240 ), #53 ) ;
#240 = PRESENTATION_STYLE_ASSIGNMENT (( #241 ) ) ;
#241 = SURFACE_STYLE_USAGE ( .BOTH. , #242 ) ;
#242 = SURFACE_SIDE_STYLE ('',( #243 ) ) ;
#243 = SURFACE_STYLE_FILL_AREA ( #244 ) ;
#244 = FILL_AREA_STYLE ('',( #231 ) ) ;
#245 = DIRECTION ( 'NONE',  ( 0.0000000000000000000, 1.000000000000000000, 0.0000000000000000000 ) ) ;
#246 =( GEOMETRIC_REPRESENTATION_CONTEXT ( 3 ) GLOBAL_UNCERTAINTY_ASSIGNED_CONTEXT ( ( #199 ) ) GLOBAL_UNIT_ASSIGNED_CONTEXT ( ( #214, #200, #225 ) ) REPRESENTATION_CONTEXT ( 'NONE', 'WORKASPACE' ) );
#247 = FACE_OUTER_BOUND ( 'NONE', #41, .T. ) ;
#248 = SURFACE_SIDE_STYLE ('',( #250 ) ) ;
#249 = AXIS2_PLACEMENT_3D ( 'NONE', #226, #206, #251 ) ;
#250 = SURFACE_STYLE_FILL_AREA ( #197 ) ;
#251 = DIRECTION ( 'NONE',  ( 1.000000000000000000, 0.0000000000000000000, 0.0000000000000000000 ) ) ;
#252 = UNCERTAINTY_MEASURE_WITH_UNIT (LENGTH_MEASURE( 1.000000000000000100E-005 ), #257, 'distance_accuracy_value', 'NONE');
#253 =( GEOMETRIC_REPRESENTATION_CONTEXT ( 3 ) GLOBAL_UNCERTAINTY_ASSIGNED_CONTEXT ( ( #258 ) ) GLOBAL_UNIT_ASSIGNED_CONTEXT ( ( #212, #219, #218 ) ) REPRESENTATION_CONTEXT ( 'NONE', 'WORKASPACE' ) );
#254 = CARTESIAN_POINT ( 'NONE',  ( 0.0000000000000000000, 1.764657755858045800E-014, -1.120020491801820800 ) ) ;
#255 = DIRECTION ( 'NONE',  ( -1.000000000000000000, 1.224606353822377300E-016, 0.0000000000000000000 ) ) ;
#256 = FILL_AREA_STYLE_COLOUR ( '', #285 ) ;
#257 =( LENGTH_UNIT ( ) NAMED_UNIT ( * ) SI_UNIT ( .MILLI., .METRE. ) );
#258 = UNCERTAINTY_MEASURE_WITH_UNIT (LENGTH_MEASURE( 1.000000000000000100E-005 ), #212, 'distance_accuracy_value', 'NONE');
#259 = FACE_OUTER_BOUND ( 'NONE', #51, .T. ) ;
#260 =( NAMED_UNIT ( * ) SI_UNIT ( $, .STERADIAN. ) SOLID_ANGLE_UNIT ( ) );
#261 =( NAMED_UNIT ( * ) PLANE_ANGLE_UNIT ( ) SI_UNIT ( $, .RADIAN. ) );
#262 = FILL_AREA_STYLE ('',( #256 ) ) ;
#263 = SURFACE_STYLE_USAGE ( .BOTH. , #290 ) ;
#264 = DIRECTION ( 'NONE',  ( -1.000000000000000000, 0.0000000000000000000, 0.0000000000000000000 ) ) ;
#265 = CARTESIAN_POINT ( 'NONE',  ( 0.0000000000000000000, 0.0000000000000000000, -289.3200204918018100 ) ) ;
#266 = CARTESIAN_POINT ( 'NONE',  ( 12.69999999999999900, 0.0000000000000000000, -1.399979508198180500 ) ) ;
#267 = SURFACE_STYLE_FILL_AREA ( #262 ) ;
#268 =( LENGTH_UNIT ( ) NAMED_UNIT ( * ) SI_UNIT ( .MILLI., .METRE. ) );
#269 = CIRCLE ( 'NONE', #277, 12.69999999999999900 ) ;
#270 = PRESENTATION_STYLE_ASSIGNMENT (( #263 ) ) ;
#271 = PRESENTATION_LAYER_ASSIGNMENT (  '', '', ( #272 ) ) ;
#272 = STYLED_ITEM ( 'NONE', ( #270 ), #58 ) ;
#273 =( NAMED_UNIT ( * ) SI_UNIT ( $, .STERADIAN. ) SOLID_ANGLE_UNIT ( ) );
#274 = AXIS2_PLACEMENT_3D ( 'NONE', #265, #264, #287 ) ;
#275 = DIRECTION ( 'NONE',  ( -0.0000000000000000000, -0.0000000000000000000, 1.000000000000000000 ) ) ;
#276 = CARTESIAN_POINT ( 'NONE',  ( 0.0000000000000000000, 0.0000000000000000000, -1.399979508198180500 ) ) ;
#277 = AXIS2_PLACEMENT_3D ( 'NONE', #276, #275, #281 ) ;
#278 = DIRECTION ( 'NONE',  ( -1.224606353822377500E-016, -1.000000000000000000, 0.0000000000000000000 ) ) ;
#279 = CARTESIAN_POINT ( 'NONE',  ( 0.0000000000000000000, 0.0000000000000000000, -289.3200204918018100 ) ) ;
#280 = CARTESIAN_POINT ( 'NONE',  ( 0.0000000000000000000, 12.70000000000016600, -1.399979508198190900 ) ) ;
#281 = DIRECTION ( 'NONE',  ( 1.000000000000000000, 0.0000000000000000000, 0.0000000000000000000 ) ) ;
#282 = AXIS2_PLACEMENT_3D ( 'NONE', #279, #255, #278 ) ;
#283 =( GEOMETRIC_REPRESENTATION_CONTEXT ( 3 ) GLOBAL_UNCERTAINTY_ASSIGNED_CONTEXT ( ( #252 ) ) GLOBAL_UNIT_ASSIGNED_CONTEXT ( ( #257, #289, #273 ) ) REPRESENTATION_CONTEXT ( 'NONE', 'WORKASPACE' ) );
#284 = SPHERICAL_SURFACE ( 'NONE', #274, 288.1999999999999900 ) ;
#285 = COLOUR_RGB ( '',0.9568627450980391500, 0.9490196078431372100, 0.9607843137254902200 ) ;
#286 = CARTESIAN_POINT ( 'NONE',  ( -1.555250069354439400E-015, -12.70000000000016600, -1.399979508198190900 ) ) ;
#287 = DIRECTION ( 'NONE',  ( 0.0000000000000000000, 1.000000000000000000, 0.0000000000000000000 ) ) ;
#288 = CIRCLE ( 'NONE', #282, 288.1999999999999900 ) ;
#289 =( NAMED_UNIT ( * ) PLANE_ANGLE_UNIT ( ) SI_UNIT ( $, .RADIAN. ) );
#290 = SURFACE_SIDE_STYLE ('',( #267 ) ) ;
#291 = MECHANICAL_DESIGN_GEOMETRIC_PRESENTATION_REPRESENTATION (  '', ( #272 ), #283 ) ;
#292 =( GEOMETRIC_REPRESENTATION_CONTEXT ( 3 ) GLOBAL_UNCERTAINTY_ASSIGNED_CONTEXT ( ( #305 ) ) GLOBAL_UNIT_ASSIGNED_CONTEXT ( ( #307, #309, #310 ) ) REPRESENTATION_CONTEXT ( 'NONE', 'WORKASPACE' ) );
#293 = MECHANICAL_DESIGN_GEOMETRIC_PRESENTATION_REPRESENTATION (  '', ( #304 ), #292 ) ;
#294 = CARTESIAN_POINT ( 'NONE',  ( 0.0000000000000000000, 0.0000000000000000000, 0.0000000000000000000 ) ) ;
#295 = AXIS2_PLACEMENT_3D ( 'NONE', #294, #296, #299 ) ;
#296 = DIRECTION ( 'NONE',  ( 0.0000000000000000000, 0.0000000000000000000, 1.000000000000000000 ) ) ;
#297 = ADVANCED_BREP_SHAPE_REPRESENTATION ( '4819-E0W', ( #53, #295 ), #80 ) ;
#298 = APPLICATION_CONTEXT ( 'automotive_design' ) ;
#299 = DIRECTION ( 'NONE',  ( 1.000000000000000000, 0.0000000000000000000, 0.0000000000000000000 ) ) ;
#300 = FILL_AREA_STYLE ('',( #303 ) ) ;
#301 = COLOUR_RGB ( '',0.7960784313725489700, 0.8235294117647058400, 0.9372549019607843100 ) ;
#302 = APPLICATION_PROTOCOL_DEFINITION ( 'draft international standard', 'automotive_design', 1998, #298 ) ;
#303 = FILL_AREA_STYLE_COLOUR ( '', #301 ) ;
#304 = STYLED_ITEM ( 'NONE', ( #308 ), #297 ) ;
#305 = UNCERTAINTY_MEASURE_WITH_UNIT (LENGTH_MEASURE( 1.000000000000000100E-005 ), #307, 'distance_accuracy_value', 'NONE');
#306 = PRESENTATION_LAYER_ASSIGNMENT (  '', '', ( #304 ) ) ;
#307 =( LENGTH_UNIT ( ) NAMED_UNIT ( * ) SI_UNIT ( .MILLI., .METRE. ) );
#308 = PRESENTATION_STYLE_ASSIGNMENT (( #312 ) ) ;
#309 =( NAMED_UNIT ( * ) PLANE_ANGLE_UNIT ( ) SI_UNIT ( $, .RADIAN. ) );
#310 =( NAMED_UNIT ( * ) SI_UNIT ( $, .STERADIAN. ) SOLID_ANGLE_UNIT ( ) );
#311 = SURFACE_STYLE_FILL_AREA ( #300 ) ;
#312 = SURFACE_STYLE_USAGE ( .BOTH. , #313 ) ;
#313 = SURFACE_SIDE_STYLE ('',( #311 ) ) ;
#314 = APPLICATION_CONTEXT ( 'automotive_design' ) ;
#315 = PRODUCT_DEFINITION_SHAPE ( 'NONE', 'NONE',  #321 ) ;
#316 = PRODUCT_DEFINITION_CONTEXT ( 'detailed design', #314, 'design' ) ;
#317 = SHAPE_DEFINITION_REPRESENTATION ( #315, #297 ) ;
#318 = APPLICATION_PROTOCOL_DEFINITION ( 'draft international standard', 'automotive_design', 1998, #314 ) ;
#319 = PRODUCT ( '4819-E0W', '4819-E0W', '', ( #119 ) ) ;
#320 = PRODUCT_RELATED_PRODUCT_CATEGORY ( 'part', '', ( #319 ) ) ;
#321 = PRODUCT_DEFINITION ( 'UNKNOWN', '', #322, #316 ) ;
#322 = PRODUCT_DEFINITION_FORMATION_WITH_SPECIFIED_SOURCE ( 'ANY', '', #319, .NOT_KNOWN. ) ;
ENDSEC;
END-ISO-10303-21;
