ISO-10303-21;
HEADER;
FILE_DESCRIPTION (( 'STEP AP203' ),
    '1' );
FILE_NAME ('Web Model 59280_59280.step',
    '2019-02-28T19:48:44',
    ( '' ),
    ( '' ),
    'SwSTEP 2.0',
    'SolidWorks 2016',
    '' );
FILE_SCHEMA (( 'CONFIG_CONTROL_DESIGN' ));
ENDSEC;

DATA;
#1 = PERSON_AND_ORGANIZATION_ROLE ( 'design_owner' ) ;
#2 = PERSON_AND_ORGANIZATION_ROLE ( 'creator' ) ;
#3 = PERSON ( 'UNSPECIFIED', 'UNSPECIFIED', 'UNSPECIFIED', ('UNSPECIFIED'), ('UNSPECIFIED'), ('UNSPECIFIED') ) ;
#4 = LINE ( 'NONE', #201, #48 ) ;
#5 = DIRECTION ( 'NONE',  ( -1.000000000000000000, -1.821231995776175700E-016, 0.0000000000000000000 ) ) ;
#6 = CC_DESIGN_DATE_AND_TIME_ASSIGNMENT ( #226, #133, ( #8 ) ) ;
#7 = FACE_OUTER_BOUND ( 'NONE', #49, .T. ) ;
#8 = SECURITY_CLASSIFICATION ( '', '', #132 ) ;
#9 = DIRECTION ( 'NONE',  ( 0.0000000000000000000, -0.0000000000000000000, 1.000000000000000000 ) ) ;
#10 = CALENDAR_DATE ( 2019, 28, 2 ) ;
#11 = FACE_OUTER_BOUND ( 'NONE', #135, .T. ) ;
#12 = COORDINATED_UNIVERSAL_TIME_OFFSET ( 5, 0, .BEHIND. ) ;
#13 = LINE ( 'NONE', #230, #156 ) ;
#14 = PLANE ( 'NONE',  #195 ) ;
#15 = DATE_AND_TIME ( #66, #142 ) ;
#16 = CARTESIAN_POINT ( 'NONE',  ( -38.10000000000001600, -12.70000000000000300, 0.7600000000000000100 ) ) ;
#17 = DIRECTION ( 'NONE',  ( -0.0000000000000000000, -0.0000000000000000000, -1.000000000000000000 ) ) ;
#18 = VECTOR ( 'NONE', #39, 1000.000000000000000 ) ;
#19 = APPROVAL_STATUS ( 'not_yet_approved' ) ;
#20 = DIRECTION ( 'NONE',  ( -0.0000000000000000000, -0.0000000000000000000, -1.000000000000000000 ) ) ;
#21 = LOCAL_TIME ( 14, 48, 44.00000000000000000, #12 ) ;
#22 = PRODUCT_DEFINITION_FORMATION_WITH_SPECIFIED_SOURCE ( 'ANY', '', #42, .NOT_KNOWN. ) ;
#23 = LINE ( 'NONE', #123, #82 ) ;
#24 = ORIENTED_EDGE ( 'NONE', *, *, #45, .F. ) ;
#25 = PERSON_AND_ORGANIZATION ( #3, #125 ) ;
#26 = VERTEX_POINT ( 'NONE', #212 ) ;
#27 = PRODUCT_DEFINITION ( 'UNKNOWN', '', #22, #50 ) ;
#28 = CARTESIAN_POINT ( 'NONE',  ( -38.10000000000001600, -12.70000000000000300, 0.7600000000000000100 ) ) ;
#29 = DIRECTION ( 'NONE',  ( 0.0000000000000000000, 1.000000000000000000, 0.0000000000000000000 ) ) ;
#30 = CLOSED_SHELL ( 'NONE', ( #216, #106, #128, #69, #148, #40 ) ) ;
#31 = CALENDAR_DATE ( 2019, 28, 2 ) ;
#32 = CC_DESIGN_APPROVAL ( #199, ( #22 ) ) ;
#33 = APPROVAL_PERSON_ORGANIZATION ( #185, #199, #192 ) ;
#34 = ORIENTED_EDGE ( 'NONE', *, *, #103, .T. ) ;
#35 = VECTOR ( 'NONE', #202, 1000.000000000000000 ) ;
#36 = PERSON_AND_ORGANIZATION ( #3, #125 ) ;
#37 = EDGE_LOOP ( 'NONE', ( #104, #141, #183, #193 ) ) ;
#38 = COORDINATED_UNIVERSAL_TIME_OFFSET ( 5, 0, .BEHIND. ) ;
#39 = DIRECTION ( 'NONE',  ( 1.000000000000000000, 2.276539994720219300E-016, -0.0000000000000000000 ) ) ;
#40 = ADVANCED_FACE ( 'NONE', ( #116 ), #63, .F. ) ;
#41 = APPLICATION_PROTOCOL_DEFINITION ( 'international standard', 'config_control_design', 1994, #55 ) ;
#42 = PRODUCT ( 'Web Model 59280_59280', 'Web Model 59280_59280', '', ( #219 ) ) ;
#43 = ORIENTED_EDGE ( 'NONE', *, *, #234, .F. ) ;
#44 = ORIENTED_EDGE ( 'NONE', *, *, #92, .F. ) ;
#45 = EDGE_CURVE ( 'NONE', #78, #124, #4, .T. ) ;
#46 = PERSON_AND_ORGANIZATION ( #3, #125 ) ;
#47 = DIRECTION ( 'NONE',  ( -0.0000000000000000000, -0.0000000000000000000, -1.000000000000000000 ) ) ;
#48 = VECTOR ( 'NONE', #161, 1000.000000000000000 ) ;
#49 = EDGE_LOOP ( 'NONE', ( #108, #44, #88, #189 ) ) ;
#50 = DESIGN_CONTEXT ( 'detailed design', #237, 'design' ) ;
#51 = UNCERTAINTY_MEASURE_WITH_UNIT (LENGTH_MEASURE( 1.000000000000000100E-005 ), #112, 'distance_accuracy_value', 'NONE');
#52 = CARTESIAN_POINT ( 'NONE',  ( 38.09999999999998700, 12.70000000000001000, -0.7600000000000000100 ) ) ;
#53 = VECTOR ( 'NONE', #17, 1000.000000000000000 ) ;
#54 = PLANE ( 'NONE',  #85 ) ;
#55 = APPLICATION_CONTEXT ( 'configuration controlled 3d designs of mechanical parts and assemblies' ) ;
#56 = LINE ( 'NONE', #187, #86 ) ;
#57 = APPROVAL_STATUS ( 'not_yet_approved' ) ;
#58 = LINE ( 'NONE', #52, #225 ) ;
#59 = LOCAL_TIME ( 14, 48, 44.00000000000000000, #163 ) ;
#60 = EDGE_CURVE ( 'NONE', #166, #26, #94, .T. ) ;
#61 = CC_DESIGN_PERSON_AND_ORGANIZATION_ASSIGNMENT ( #89, #190, ( #8 ) ) ;
#62 = VECTOR ( 'NONE', #200, 1000.000000000000000 ) ;
#63 = PLANE ( 'NONE',  #147 ) ;
#64 = FACE_OUTER_BOUND ( 'NONE', #96, .T. ) ;
#65 = DIRECTION ( 'NONE',  ( 1.000000000000000000, 1.821231995776175500E-016, 0.0000000000000000000 ) ) ;
#66 = CALENDAR_DATE ( 2019, 28, 2 ) ;
#67 = CARTESIAN_POINT ( 'NONE',  ( 38.09999999999998700, -12.69999999999998500, -0.7600000000000000100 ) ) ;
#68 = DIRECTION ( 'NONE',  ( -1.000000000000000000, 0.0000000000000000000, 0.0000000000000000000 ) ) ;
#69 = ADVANCED_FACE ( 'NONE', ( #64 ), #232, .F. ) ;
#70 = DATE_AND_TIME ( #120, #162 ) ;
#71 = DIRECTION ( 'NONE',  ( 0.0000000000000000000, 0.0000000000000000000, 1.000000000000000000 ) ) ;
#72 = AXIS2_PLACEMENT_3D ( 'NONE', #196, #164, #65 ) ;
#73 = FACE_OUTER_BOUND ( 'NONE', #213, .T. ) ;
#74 = ORIENTED_EDGE ( 'NONE', *, *, #224, .T. ) ;
#75 = CARTESIAN_POINT ( 'NONE',  ( 0.0000000000000000000, 0.0000000000000000000, 0.0000000000000000000 ) ) ;
#76 = PERSON_AND_ORGANIZATION ( #3, #125 ) ;
#77 = LINE ( 'NONE', #97, #35 ) ;
#78 = VERTEX_POINT ( 'NONE', #184 ) ;
#79 = CC_DESIGN_APPROVAL ( #122, ( #8 ) ) ;
#80 = CARTESIAN_POINT ( 'NONE',  ( -38.10000000000001600, -12.70000000000000300, -0.7600000000000000100 ) ) ;
#81 = CARTESIAN_POINT ( 'NONE',  ( 38.09999999999998700, -12.69999999999998500, -0.7600000000000000100 ) ) ;
#82 = VECTOR ( 'NONE', #143, 1000.000000000000000 ) ;
#83 = VERTEX_POINT ( 'NONE', #197 ) ;
#84 = DIRECTION ( 'NONE',  ( 1.000000000000000000, 0.0000000000000000000, -0.0000000000000000000 ) ) ;
#85 = AXIS2_PLACEMENT_3D ( 'NONE', #188, #205, #90 ) ;
#86 = VECTOR ( 'NONE', #5, 1000.000000000000000 ) ;
#87 = CARTESIAN_POINT ( 'NONE',  ( -38.10000000000001600, 12.69999999999999600, -0.7600000000000000100 ) ) ;
#88 = ORIENTED_EDGE ( 'NONE', *, *, #103, .F. ) ;
#89 = PERSON_AND_ORGANIZATION ( #3, #125 ) ;
#90 = DIRECTION ( 'NONE',  ( 0.0000000000000000000, 0.0000000000000000000, -1.000000000000000000 ) ) ;
#91 = APPROVAL_ROLE ( '' ) ;
#92 = EDGE_CURVE ( 'NONE', #207, #26, #155, .T. ) ;
#93 = CARTESIAN_POINT ( 'NONE',  ( -38.10000000000001600, 12.69999999999999600, 0.7600000000000000100 ) ) ;
#94 = LINE ( 'NONE', #81, #115 ) ;
#95 = VERTEX_POINT ( 'NONE', #80 ) ;
#96 = EDGE_LOOP ( 'NONE', ( #236, #43, #113, #169 ) ) ;
#97 = CARTESIAN_POINT ( 'NONE',  ( -38.10000000000001600, -12.70000000000000300, -0.7600000000000000100 ) ) ;
#98 = DIRECTION ( 'NONE',  ( -1.000000000000000000, -2.276539994720219300E-016, 0.0000000000000000000 ) ) ;
#99 = APPROVAL ( #172, 'UNSPECIFIED' ) ;
#100 = LINE ( 'NONE', #93, #153 ) ;
#101 = CARTESIAN_POINT ( 'NONE',  ( 0.0000000000000000000, 0.0000000000000000000, -0.7600000000000000100 ) ) ;
#102 = CARTESIAN_POINT ( 'NONE',  ( 0.0000000000000000000, 0.0000000000000000000, 0.7600000000000000100 ) ) ;
#103 = EDGE_CURVE ( 'NONE', #83, #207, #23, .T. ) ;
#104 = ORIENTED_EDGE ( 'NONE', *, *, #134, .F. ) ;
#105 = CC_DESIGN_SECURITY_CLASSIFICATION ( #8, ( #22 ) ) ;
#106 = ADVANCED_FACE ( 'NONE', ( #11 ), #138, .F. ) ;
#107 = APPROVAL_DATE_TIME ( #154, #99 ) ;
#108 = ORIENTED_EDGE ( 'NONE', *, *, #60, .T. ) ;
#109 = APPROVAL_DATE_TIME ( #15, #122 ) ;
#110 = PRODUCT_DEFINITION_SHAPE ( 'NONE', 'NONE',  #27 ) ;
#111 =( NAMED_UNIT ( * ) SI_UNIT ( $, .STERADIAN. ) SOLID_ANGLE_UNIT ( ) );
#112 =( LENGTH_UNIT ( ) NAMED_UNIT ( * ) SI_UNIT ( .MILLI., .METRE. ) );
#113 = ORIENTED_EDGE ( 'NONE', *, *, #209, .F. ) ;
#114 = CALENDAR_DATE ( 2019, 28, 2 ) ;
#115 = VECTOR ( 'NONE', #29, 1000.000000000000000 ) ;
#116 = FACE_OUTER_BOUND ( 'NONE', #37, .T. ) ;
#117 = ORIENTED_EDGE ( 'NONE', *, *, #118, .T. ) ;
#118 = EDGE_CURVE ( 'NONE', #124, #83, #13, .T. ) ;
#119 = CARTESIAN_POINT ( 'NONE',  ( 38.09999999999998700, -12.69999999999998500, 0.7600000000000000100 ) ) ;
#120 = CALENDAR_DATE ( 2019, 28, 2 ) ;
#121 = DIRECTION ( 'NONE',  ( 1.000000000000000000, 2.276539994720219300E-016, -0.0000000000000000000 ) ) ;
#122 = APPROVAL ( #19, 'UNSPECIFIED' ) ;
#123 = CARTESIAN_POINT ( 'NONE',  ( 38.09999999999998700, -12.69999999999998500, 0.7600000000000000100 ) ) ;
#124 = VERTEX_POINT ( 'NONE', #28 ) ;
#125 = ORGANIZATION ( 'UNSPECIFIED', 'UNSPECIFIED', '' ) ;
#126 = ORIENTED_EDGE ( 'NONE', *, *, #217, .T. ) ;
#127 = DIRECTION ( 'NONE',  ( -1.000000000000000000, -1.821231995776175700E-016, 0.0000000000000000000 ) ) ;
#128 = ADVANCED_FACE ( 'NONE', ( #7 ), #14, .F. ) ;
#129 = CC_DESIGN_DATE_AND_TIME_ASSIGNMENT ( #228, #222, ( #27 ) ) ;
#130 = PERSON_AND_ORGANIZATION_ROLE ( 'design_supplier' ) ;
#131 = CC_DESIGN_PERSON_AND_ORGANIZATION_ASSIGNMENT ( #25, #208, ( #27 ) ) ;
#132 = SECURITY_CLASSIFICATION_LEVEL ( 'unclassified' ) ;
#133 = DATE_TIME_ROLE ( 'classification_date' ) ;
#134 = EDGE_CURVE ( 'NONE', #227, #95, #77, .T. ) ;
#135 = EDGE_LOOP ( 'NONE', ( #74, #178, #194, #126 ) ) ;
#136 = CC_DESIGN_PERSON_AND_ORGANIZATION_ASSIGNMENT ( #76, #1, ( #42 ) ) ;
#137 = COORDINATED_UNIVERSAL_TIME_OFFSET ( 5, 0, .BEHIND. ) ;
#138 = PLANE ( 'NONE',  #160 ) ;
#139 = CC_DESIGN_APPROVAL ( #99, ( #27 ) ) ;
#140 = APPROVAL_PERSON_ORGANIZATION ( #46, #122, #152 ) ;
#141 = ORIENTED_EDGE ( 'NONE', *, *, #144, .F. ) ;
#142 = LOCAL_TIME ( 14, 48, 44.00000000000000000, #38 ) ;
#143 = DIRECTION ( 'NONE',  ( 0.0000000000000000000, 1.000000000000000000, 0.0000000000000000000 ) ) ;
#144 = EDGE_CURVE ( 'NONE', #26, #227, #58, .T. ) ;
#145 = DIRECTION ( 'NONE',  ( 0.0000000000000000000, -0.0000000000000000000, 1.000000000000000000 ) ) ;
#146 = CARTESIAN_POINT ( 'NONE',  ( 38.09999999999998700, -12.69999999999998500, 0.7600000000000000100 ) ) ;
#147 = AXIS2_PLACEMENT_3D ( 'NONE', #101, #9, #179 ) ;
#148 = ADVANCED_FACE ( 'NONE', ( #204 ), #214, .T. ) ;
#149 = LOCAL_TIME ( 14, 48, 44.00000000000000000, #137 ) ;
#150 = LINE ( 'NONE', #16, #53 ) ;
#151 = CARTESIAN_POINT ( 'NONE',  ( 38.09999999999998700, -12.69999999999998500, -0.7600000000000000100 ) ) ;
#152 = APPROVAL_ROLE ( '' ) ;
#153 = VECTOR ( 'NONE', #20, 1000.000000000000000 ) ;
#154 = DATE_AND_TIME ( #10, #149 ) ;
#155 = LINE ( 'NONE', #181, #62 ) ;
#156 = VECTOR ( 'NONE', #121, 1000.000000000000000 ) ;
#157 = ORIENTED_EDGE ( 'NONE', *, *, #134, .T. ) ;
#158 = EDGE_CURVE ( 'NONE', #83, #166, #171, .T. ) ;
#159 = PRODUCT_RELATED_PRODUCT_CATEGORY ( 'detail', '', ( #42 ) ) ;
#160 = AXIS2_PLACEMENT_3D ( 'NONE', #119, #211, #98 ) ;
#161 = DIRECTION ( 'NONE',  ( -0.0000000000000000000, -1.000000000000000000, -0.0000000000000000000 ) ) ;
#162 = LOCAL_TIME ( 14, 48, 44.00000000000000000, #174 ) ;
#163 = COORDINATED_UNIVERSAL_TIME_OFFSET ( 5, 0, .BEHIND. ) ;
#164 = DIRECTION ( 'NONE',  ( 1.821231995776175500E-016, -1.000000000000000000, 0.0000000000000000000 ) ) ;
#165 = AXIS2_PLACEMENT_3D ( 'NONE', #75, #71, #206 ) ;
#166 = VERTEX_POINT ( 'NONE', #67 ) ;
#167 = CARTESIAN_POINT ( 'NONE',  ( 38.09999999999998700, -12.69999999999998500, 0.7600000000000000100 ) ) ;
#168 = PERSON_AND_ORGANIZATION ( #3, #125 ) ;
#169 = ORIENTED_EDGE ( 'NONE', *, *, #92, .T. ) ;
#170 =( NAMED_UNIT ( * ) PLANE_ANGLE_UNIT ( ) SI_UNIT ( $, .RADIAN. ) );
#171 = LINE ( 'NONE', #167, #182 ) ;
#172 = APPROVAL_STATUS ( 'not_yet_approved' ) ;
#173 =( GEOMETRIC_REPRESENTATION_CONTEXT ( 3 ) GLOBAL_UNCERTAINTY_ASSIGNED_CONTEXT ( ( #51 ) ) GLOBAL_UNIT_ASSIGNED_CONTEXT ( ( #112, #170, #111 ) ) REPRESENTATION_CONTEXT ( 'NONE', 'WORKASPACE' ) );
#174 = COORDINATED_UNIVERSAL_TIME_OFFSET ( 5, 0, .BEHIND. ) ;
#175 = ORIENTED_EDGE ( 'NONE', *, *, #217, .F. ) ;
#176 = CC_DESIGN_PERSON_AND_ORGANIZATION_ASSIGNMENT ( #36, #130, ( #22 ) ) ;
#177 = SHAPE_DEFINITION_REPRESENTATION ( #110, #231 ) ;
#178 = ORIENTED_EDGE ( 'NONE', *, *, #158, .F. ) ;
#179 = DIRECTION ( 'NONE',  ( 1.000000000000000000, 0.0000000000000000000, -0.0000000000000000000 ) ) ;
#180 = AXIS2_PLACEMENT_3D ( 'NONE', #102, #145, #84 ) ;
#181 = CARTESIAN_POINT ( 'NONE',  ( 38.09999999999998700, 12.70000000000001000, 0.7600000000000000100 ) ) ;
#182 = VECTOR ( 'NONE', #47, 1000.000000000000000 ) ;
#183 = ORIENTED_EDGE ( 'NONE', *, *, #60, .F. ) ;
#184 = CARTESIAN_POINT ( 'NONE',  ( -38.10000000000001600, 12.69999999999999600, 0.7600000000000000100 ) ) ;
#185 = PERSON_AND_ORGANIZATION ( #3, #125 ) ;
#186 = ORIENTED_EDGE ( 'NONE', *, *, #45, .T. ) ;
#187 = CARTESIAN_POINT ( 'NONE',  ( 38.09999999999998700, 12.70000000000001000, 0.7600000000000000100 ) ) ;
#188 = CARTESIAN_POINT ( 'NONE',  ( -38.10000000000001600, -12.70000000000000300, 0.7600000000000000100 ) ) ;
#189 = ORIENTED_EDGE ( 'NONE', *, *, #158, .T. ) ;
#190 = PERSON_AND_ORGANIZATION_ROLE ( 'classification_officer' ) ;
#191 = APPLICATION_PROTOCOL_DEFINITION ( 'international standard', 'config_control_design', 1994, #237 ) ;
#192 = APPROVAL_ROLE ( '' ) ;
#193 = ORIENTED_EDGE ( 'NONE', *, *, #224, .F. ) ;
#194 = ORIENTED_EDGE ( 'NONE', *, *, #118, .F. ) ;
#195 = AXIS2_PLACEMENT_3D ( 'NONE', #146, #68, #218 ) ;
#196 = CARTESIAN_POINT ( 'NONE',  ( 38.09999999999998700, 12.70000000000001000, 0.7600000000000000100 ) ) ;
#197 = CARTESIAN_POINT ( 'NONE',  ( 38.09999999999998700, -12.69999999999998500, 0.7600000000000000100 ) ) ;
#198 = PERSON_AND_ORGANIZATION ( #3, #125 ) ;
#199 = APPROVAL ( #57, 'UNSPECIFIED' ) ;
#200 = DIRECTION ( 'NONE',  ( -0.0000000000000000000, -0.0000000000000000000, -1.000000000000000000 ) ) ;
#201 = CARTESIAN_POINT ( 'NONE',  ( -38.10000000000001600, -12.70000000000000300, 0.7600000000000000100 ) ) ;
#202 = DIRECTION ( 'NONE',  ( -0.0000000000000000000, -1.000000000000000000, -0.0000000000000000000 ) ) ;
#203 = APPROVAL_PERSON_ORGANIZATION ( #198, #99, #91 ) ;
#204 = FACE_OUTER_BOUND ( 'NONE', #221, .T. ) ;
#205 = DIRECTION ( 'NONE',  ( 1.000000000000000000, 0.0000000000000000000, 0.0000000000000000000 ) ) ;
#206 = DIRECTION ( 'NONE',  ( 1.000000000000000000, 0.0000000000000000000, 0.0000000000000000000 ) ) ;
#207 = VERTEX_POINT ( 'NONE', #215 ) ;
#208 = PERSON_AND_ORGANIZATION_ROLE ( 'creator' ) ;
#209 = EDGE_CURVE ( 'NONE', #207, #78, #56, .T. ) ;
#210 = APPROVAL_DATE_TIME ( #70, #199 ) ;
#211 = DIRECTION ( 'NONE',  ( -2.276539994720219300E-016, 1.000000000000000000, 0.0000000000000000000 ) ) ;
#212 = CARTESIAN_POINT ( 'NONE',  ( 38.09999999999998700, 12.70000000000001000, -0.7600000000000000100 ) ) ;
#213 = EDGE_LOOP ( 'NONE', ( #157, #175, #24, #229 ) ) ;
#214 = PLANE ( 'NONE',  #180 ) ;
#215 = CARTESIAN_POINT ( 'NONE',  ( 38.09999999999998700, 12.70000000000001000, 0.7600000000000000100 ) ) ;
#216 = ADVANCED_FACE ( 'NONE', ( #73 ), #54, .F. ) ;
#217 = EDGE_CURVE ( 'NONE', #124, #95, #150, .T. ) ;
#218 = DIRECTION ( 'NONE',  ( 0.0000000000000000000, 0.0000000000000000000, 1.000000000000000000 ) ) ;
#219 = MECHANICAL_CONTEXT ( 'NONE', #55, 'mechanical' ) ;
#220 = LINE ( 'NONE', #151, #18 ) ;
#221 = EDGE_LOOP ( 'NONE', ( #186, #117, #34, #233 ) ) ;
#222 = DATE_TIME_ROLE ( 'creation_date' ) ;
#223 = MANIFOLD_SOLID_BREP ( 'Boss-Extrude1', #30 ) ;
#224 = EDGE_CURVE ( 'NONE', #95, #166, #220, .T. ) ;
#225 = VECTOR ( 'NONE', #127, 1000.000000000000000 ) ;
#226 = DATE_AND_TIME ( #31, #59 ) ;
#227 = VERTEX_POINT ( 'NONE', #87 ) ;
#228 = DATE_AND_TIME ( #114, #21 ) ;
#229 = ORIENTED_EDGE ( 'NONE', *, *, #234, .T. ) ;
#230 = CARTESIAN_POINT ( 'NONE',  ( 38.09999999999998700, -12.69999999999998500, 0.7600000000000000100 ) ) ;
#231 = ADVANCED_BREP_SHAPE_REPRESENTATION ( 'Web Model 59280_59280', ( #223, #165 ), #173 ) ;
#232 = PLANE ( 'NONE',  #72 ) ;
#233 = ORIENTED_EDGE ( 'NONE', *, *, #209, .T. ) ;
#234 = EDGE_CURVE ( 'NONE', #78, #227, #100, .T. ) ;
#235 = CC_DESIGN_PERSON_AND_ORGANIZATION_ASSIGNMENT ( #168, #2, ( #22 ) ) ;
#236 = ORIENTED_EDGE ( 'NONE', *, *, #144, .T. ) ;
#237 = APPLICATION_CONTEXT ( 'configuration controlled 3d designs of mechanical parts and assemblies' ) ;
ENDSEC;
END-ISO-10303-21;
