ISO-10303-21;
HEADER;
FILE_DESCRIPTION (( 'STEP AP203' ),
    '1' );
FILE_NAME ('Web Model 66203.STEP',
    '2017-01-31T19:37:35',
    ( '' ),
    ( '' ),
    'SwSTEP 2.0',
    'SolidWorks 2016',
    '' );
FILE_SCHEMA (( 'CONFIG_CONTROL_DESIGN' ));
ENDSEC;

DATA;
#1 = CARTESIAN_POINT ( 'NONE',  ( 25.00000000000000000, 3.061616997868383000E-015, 3.000000000000000000 ) ) ;
#2 = CARTESIAN_POINT ( 'NONE',  ( 0.0000000000000000000, 0.0000000000000000000, 3.000000000000000000 ) ) ;
#3 = CC_DESIGN_PERSON_AND_ORGANIZATION_ASSIGNMENT ( #27, #36, ( #40 ) ) ;
#4 = AXIS2_PLACEMENT_3D ( 'NONE', #130, #150, #68 ) ;
#5 = CARTESIAN_POINT ( 'NONE',  ( -25.00000000000000000, 0.0000000000000000000, 3.000000000000000000 ) ) ;
#6 = ORIENTED_EDGE ( 'NONE', *, *, #104, .T. ) ;
#7 = DIRECTION ( 'NONE',  ( 0.0000000000000000000, 0.0000000000000000000, 1.000000000000000000 ) ) ;
#8 = APPLICATION_CONTEXT ( 'configuration controlled 3d designs of mechanical parts and assemblies' ) ;
#9 = CALENDAR_DATE ( 2017, 31, 1 ) ;
#10 = CC_DESIGN_PERSON_AND_ORGANIZATION_ASSIGNMENT ( #158, #25, ( #120 ) ) ;
#11 = CC_DESIGN_APPROVAL ( #163, ( #52 ) ) ;
#12 = ADVANCED_FACE ( 'NONE', ( #85 ), #91, .T. ) ;
#13 = PERSON_AND_ORGANIZATION ( #121, #86 ) ;
#14 = EDGE_LOOP ( 'NONE', ( #136, #30 ) ) ;
#15 = CC_DESIGN_DATE_AND_TIME_ASSIGNMENT ( #23, #49, ( #52 ) ) ;
#16 = DIRECTION ( 'NONE',  ( 1.000000000000000000, 0.0000000000000000000, 0.0000000000000000000 ) ) ;
#17 = APPROVAL ( #60, 'UNSPECIFIED' ) ;
#18 = ORIENTED_EDGE ( 'NONE', *, *, #95, .T. ) ;
#19 = PRODUCT_RELATED_PRODUCT_CATEGORY ( 'detail', '', ( #40 ) ) ;
#20 =( NAMED_UNIT ( * ) SI_UNIT ( $, .STERADIAN. ) SOLID_ANGLE_UNIT ( ) );
#21 = CALENDAR_DATE ( 2017, 31, 1 ) ;
#22 = VERTEX_POINT ( 'NONE', #33 ) ;
#23 = DATE_AND_TIME ( #151, #58 ) ;
#24 = CC_DESIGN_PERSON_AND_ORGANIZATION_ASSIGNMENT ( #61, #70, ( #62 ) ) ;
#25 = PERSON_AND_ORGANIZATION_ROLE ( 'classification_officer' ) ;
#26 = EDGE_LOOP ( 'NONE', ( #6, #149 ) ) ;
#27 = PERSON_AND_ORGANIZATION ( #121, #86 ) ;
#28 = EDGE_LOOP ( 'NONE', ( #57, #159, #105, #65 ) ) ;
#29 = MANIFOLD_SOLID_BREP ( 'Extrude1', #103 ) ;
#30 = ORIENTED_EDGE ( 'NONE', *, *, #139, .F. ) ;
#31 = DIRECTION ( 'NONE',  ( -0.0000000000000000000, -0.0000000000000000000, -1.000000000000000000 ) ) ;
#32 = CARTESIAN_POINT ( 'NONE',  ( 0.0000000000000000000, 0.0000000000000000000, 0.0000000000000000000 ) ) ;
#33 = CARTESIAN_POINT ( 'NONE',  ( 25.00000000000000000, 3.061616997868383000E-015, 0.0000000000000000000 ) ) ;
#34 = AXIS2_PLACEMENT_3D ( 'NONE', #106, #165, #93 ) ;
#35 = DIRECTION ( 'NONE',  ( 1.000000000000000000, 0.0000000000000000000, 0.0000000000000000000 ) ) ;
#36 = PERSON_AND_ORGANIZATION_ROLE ( 'design_owner' ) ;
#37 = CYLINDRICAL_SURFACE ( 'NONE', #119, 25.00000000000000000 ) ;
#38 = FACE_OUTER_BOUND ( 'NONE', #14, .T. ) ;
#39 = PERSON_AND_ORGANIZATION ( #121, #86 ) ;
#40 = PRODUCT ( 'Web Model 66203', 'Web Model 66203', '', ( #167 ) ) ;
#41 = DIRECTION ( 'NONE',  ( -1.000000000000000000, 0.0000000000000000000, 0.0000000000000000000 ) ) ;
#42 = LOCAL_TIME ( 14, 37, 35.00000000000000000, #74 ) ;
#43 = DIRECTION ( 'NONE',  ( -0.0000000000000000000, -0.0000000000000000000, -1.000000000000000000 ) ) ;
#44 = EDGE_CURVE ( 'NONE', #175, #126, #156, .T. ) ;
#45 = DIRECTION ( 'NONE',  ( 0.0000000000000000000, 0.0000000000000000000, 1.000000000000000000 ) ) ;
#46 = DIRECTION ( 'NONE',  ( -0.0000000000000000000, -0.0000000000000000000, -1.000000000000000000 ) ) ;
#47 = LINE ( 'NONE', #1, #147 ) ;
#48 = CARTESIAN_POINT ( 'NONE',  ( 0.0000000000000000000, 0.0000000000000000000, 0.0000000000000000000 ) ) ;
#49 = DATE_TIME_ROLE ( 'creation_date' ) ;
#50 = APPROVAL_PERSON_ORGANIZATION ( #170, #17, #153 ) ;
#51 = APPROVAL_STATUS ( 'not_yet_approved' ) ;
#52 = PRODUCT_DEFINITION ( 'UNKNOWN', '', #62, #132 ) ;
#53 = PRODUCT_DEFINITION_SHAPE ( 'NONE', 'NONE',  #52 ) ;
#54 = APPROVAL_DATE_TIME ( #171, #163 ) ;
#55 = COORDINATED_UNIVERSAL_TIME_OFFSET ( 5, 0, .BEHIND. ) ;
#56 = CARTESIAN_POINT ( 'NONE',  ( 0.0000000000000000000, 0.0000000000000000000, 3.000000000000000000 ) ) ;
#57 = ORIENTED_EDGE ( 'NONE', *, *, #95, .F. ) ;
#58 = LOCAL_TIME ( 14, 37, 35.00000000000000000, #118 ) ;
#59 = PERSON_AND_ORGANIZATION_ROLE ( 'creator' ) ;
#60 = APPROVAL_STATUS ( 'not_yet_approved' ) ;
#61 = PERSON_AND_ORGANIZATION ( #121, #86 ) ;
#62 = PRODUCT_DEFINITION_FORMATION_WITH_SPECIFIED_SOURCE ( 'ANY', '', #40, .NOT_KNOWN. ) ;
#63 = SECURITY_CLASSIFICATION_LEVEL ( 'unclassified' ) ;
#64 = VERTEX_POINT ( 'NONE', #166 ) ;
#65 = ORIENTED_EDGE ( 'NONE', *, *, #115, .T. ) ;
#66 = PERSON_AND_ORGANIZATION ( #121, #86 ) ;
#67 = PLANE ( 'NONE',  #155 ) ;
#68 = DIRECTION ( 'NONE',  ( 1.000000000000000000, 0.0000000000000000000, 0.0000000000000000000 ) ) ;
#69 = ORIENTED_EDGE ( 'NONE', *, *, #84, .F. ) ;
#70 = PERSON_AND_ORGANIZATION_ROLE ( 'design_supplier' ) ;
#71 = APPLICATION_PROTOCOL_DEFINITION ( 'international standard', 'config_control_design', 1994, #97 ) ;
#72 = CIRCLE ( 'NONE', #135, 25.00000000000000000 ) ;
#73 = APPROVAL_DATE_TIME ( #107, #117 ) ;
#74 = COORDINATED_UNIVERSAL_TIME_OFFSET ( 5, 0, .BEHIND. ) ;
#75 = VECTOR ( 'NONE', #31, 1000.000000000000000 ) ;
#76 = CARTESIAN_POINT ( 'NONE',  ( 0.0000000000000000000, 0.0000000000000000000, 0.0000000000000000000 ) ) ;
#77 = DATE_AND_TIME ( #154, #82 ) ;
#78 = DIRECTION ( 'NONE',  ( -0.0000000000000000000, -0.0000000000000000000, -1.000000000000000000 ) ) ;
#79 = DIRECTION ( 'NONE',  ( -1.000000000000000000, 0.0000000000000000000, 0.0000000000000000000 ) ) ;
#80 = FACE_OUTER_BOUND ( 'NONE', #28, .T. ) ;
#81 =( NAMED_UNIT ( * ) PLANE_ANGLE_UNIT ( ) SI_UNIT ( $, .RADIAN. ) );
#82 = LOCAL_TIME ( 14, 37, 35.00000000000000000, #55 ) ;
#83 = CC_DESIGN_APPROVAL ( #17, ( #62 ) ) ;
#84 = EDGE_CURVE ( 'NONE', #126, #64, #116, .T. ) ;
#85 = FACE_OUTER_BOUND ( 'NONE', #26, .T. ) ;
#86 = ORGANIZATION ( 'UNSPECIFIED', 'UNSPECIFIED', '' ) ;
#87 = ADVANCED_BREP_SHAPE_REPRESENTATION ( 'Web Model 66203', ( #29, #172 ), #148 ) ;
#88 = UNCERTAINTY_MEASURE_WITH_UNIT (LENGTH_MEASURE( 1.000000000000000100E-005 ), #123, 'distance_accuracy_value', 'NONE');
#89 = PERSON_AND_ORGANIZATION ( #121, #86 ) ;
#90 = CARTESIAN_POINT ( 'NONE',  ( -25.00000000000000000, 0.0000000000000000000, 3.000000000000000000 ) ) ;
#91 = PLANE ( 'NONE',  #152 ) ;
#92 = EDGE_LOOP ( 'NONE', ( #168, #18, #133, #69 ) ) ;
#93 = DIRECTION ( 'NONE',  ( 1.000000000000000000, 0.0000000000000000000, 0.0000000000000000000 ) ) ;
#94 = CC_DESIGN_PERSON_AND_ORGANIZATION_ASSIGNMENT ( #89, #169, ( #62 ) ) ;
#95 = EDGE_CURVE ( 'NONE', #175, #22, #47, .T. ) ;
#96 = DIRECTION ( 'NONE',  ( 0.0000000000000000000, 0.0000000000000000000, 1.000000000000000000 ) ) ;
#97 = APPLICATION_CONTEXT ( 'configuration controlled 3d designs of mechanical parts and assemblies' ) ;
#98 = DIRECTION ( 'NONE',  ( 1.000000000000000000, 0.0000000000000000000, 0.0000000000000000000 ) ) ;
#99 = LOCAL_TIME ( 14, 37, 35.00000000000000000, #137 ) ;
#100 = APPROVAL_DATE_TIME ( #160, #17 ) ;
#101 = ADVANCED_FACE ( 'NONE', ( #80 ), #161, .T. ) ;
#102 = FACE_OUTER_BOUND ( 'NONE', #92, .T. ) ;
#103 = CLOSED_SHELL ( 'NONE', ( #113, #101, #12, #173 ) ) ;
#104 = EDGE_CURVE ( 'NONE', #126, #175, #142, .T. ) ;
#105 = ORIENTED_EDGE ( 'NONE', *, *, #84, .T. ) ;
#106 = CARTESIAN_POINT ( 'NONE',  ( 0.0000000000000000000, 0.0000000000000000000, 3.000000000000000000 ) ) ;
#107 = DATE_AND_TIME ( #9, #42 ) ;
#108 = DIRECTION ( 'NONE',  ( 0.0000000000000000000, 0.0000000000000000000, 1.000000000000000000 ) ) ;
#109 = DIRECTION ( 'NONE',  ( 1.000000000000000000, 0.0000000000000000000, -0.0000000000000000000 ) ) ;
#110 = CARTESIAN_POINT ( 'NONE',  ( 0.0000000000000000000, 0.0000000000000000000, 0.0000000000000000000 ) ) ;
#111 = APPLICATION_PROTOCOL_DEFINITION ( 'international standard', 'config_control_design', 1994, #8 ) ;
#112 = APPROVAL_PERSON_ORGANIZATION ( #66, #117, #146 ) ;
#113 = ADVANCED_FACE ( 'NONE', ( #102 ), #37, .T. ) ;
#114 = CC_DESIGN_PERSON_AND_ORGANIZATION_ASSIGNMENT ( #13, #59, ( #52 ) ) ;
#115 = EDGE_CURVE ( 'NONE', #64, #22, #144, .T. ) ;
#116 = LINE ( 'NONE', #90, #75 ) ;
#117 = APPROVAL ( #51, 'UNSPECIFIED' ) ;
#118 = COORDINATED_UNIVERSAL_TIME_OFFSET ( 5, 0, .BEHIND. ) ;
#119 = AXIS2_PLACEMENT_3D ( 'NONE', #128, #78, #79 ) ;
#120 = SECURITY_CLASSIFICATION ( '', '', #63 ) ;
#121 = PERSON ( 'UNSPECIFIED', 'UNSPECIFIED', 'UNSPECIFIED', ('UNSPECIFIED'), ('UNSPECIFIED'), ('UNSPECIFIED') ) ;
#122 = COORDINATED_UNIVERSAL_TIME_OFFSET ( 5, 0, .BEHIND. ) ;
#123 =( LENGTH_UNIT ( ) NAMED_UNIT ( * ) SI_UNIT ( .MILLI., .METRE. ) );
#124 = CARTESIAN_POINT ( 'NONE',  ( 25.00000000000000000, 3.061616997868383000E-015, 3.000000000000000000 ) ) ;
#125 = DIRECTION ( 'NONE',  ( 0.0000000000000000000, 0.0000000000000000000, 1.000000000000000000 ) ) ;
#126 = VERTEX_POINT ( 'NONE', #5 ) ;
#127 = AXIS2_PLACEMENT_3D ( 'NONE', #110, #125, #35 ) ;
#128 = CARTESIAN_POINT ( 'NONE',  ( 0.0000000000000000000, 0.0000000000000000000, 3.000000000000000000 ) ) ;
#129 = SHAPE_DEFINITION_REPRESENTATION ( #53, #87 ) ;
#130 = CARTESIAN_POINT ( 'NONE',  ( 0.0000000000000000000, 0.0000000000000000000, 3.000000000000000000 ) ) ;
#131 = APPROVAL_STATUS ( 'not_yet_approved' ) ;
#132 = DESIGN_CONTEXT ( 'detailed design', #8, 'design' ) ;
#133 = ORIENTED_EDGE ( 'NONE', *, *, #139, .T. ) ;
#134 = LOCAL_TIME ( 14, 37, 35.00000000000000000, #122 ) ;
#135 = AXIS2_PLACEMENT_3D ( 'NONE', #76, #108, #16 ) ;
#136 = ORIENTED_EDGE ( 'NONE', *, *, #115, .F. ) ;
#137 = COORDINATED_UNIVERSAL_TIME_OFFSET ( 5, 0, .BEHIND. ) ;
#138 = CC_DESIGN_APPROVAL ( #117, ( #120 ) ) ;
#139 = EDGE_CURVE ( 'NONE', #22, #64, #72, .T. ) ;
#140 = APPROVAL_PERSON_ORGANIZATION ( #39, #163, #143 ) ;
#141 = DIRECTION ( 'NONE',  ( 1.000000000000000000, 0.0000000000000000000, -0.0000000000000000000 ) ) ;
#142 = CIRCLE ( 'NONE', #4, 25.00000000000000000 ) ;
#143 = APPROVAL_ROLE ( '' ) ;
#144 = CIRCLE ( 'NONE', #127, 25.00000000000000000 ) ;
#145 = AXIS2_PLACEMENT_3D ( 'NONE', #2, #46, #41 ) ;
#146 = APPROVAL_ROLE ( '' ) ;
#147 = VECTOR ( 'NONE', #43, 1000.000000000000000 ) ;
#148 =( GEOMETRIC_REPRESENTATION_CONTEXT ( 3 ) GLOBAL_UNCERTAINTY_ASSIGNED_CONTEXT ( ( #88 ) ) GLOBAL_UNIT_ASSIGNED_CONTEXT ( ( #123, #81, #20 ) ) REPRESENTATION_CONTEXT ( 'NONE', 'WORKASPACE' ) );
#149 = ORIENTED_EDGE ( 'NONE', *, *, #44, .T. ) ;
#150 = DIRECTION ( 'NONE',  ( 0.0000000000000000000, 0.0000000000000000000, 1.000000000000000000 ) ) ;
#151 = CALENDAR_DATE ( 2017, 31, 1 ) ;
#152 = AXIS2_PLACEMENT_3D ( 'NONE', #56, #96, #109 ) ;
#153 = APPROVAL_ROLE ( '' ) ;
#154 = CALENDAR_DATE ( 2017, 31, 1 ) ;
#155 = AXIS2_PLACEMENT_3D ( 'NONE', #32, #45, #141 ) ;
#156 = CIRCLE ( 'NONE', #34, 25.00000000000000000 ) ;
#157 = CC_DESIGN_SECURITY_CLASSIFICATION ( #120, ( #62 ) ) ;
#158 = PERSON_AND_ORGANIZATION ( #121, #86 ) ;
#159 = ORIENTED_EDGE ( 'NONE', *, *, #104, .F. ) ;
#160 = DATE_AND_TIME ( #21, #134 ) ;
#161 = CYLINDRICAL_SURFACE ( 'NONE', #145, 25.00000000000000000 ) ;
#162 = CALENDAR_DATE ( 2017, 31, 1 ) ;
#163 = APPROVAL ( #131, 'UNSPECIFIED' ) ;
#164 = CC_DESIGN_DATE_AND_TIME_ASSIGNMENT ( #77, #174, ( #120 ) ) ;
#165 = DIRECTION ( 'NONE',  ( 0.0000000000000000000, 0.0000000000000000000, 1.000000000000000000 ) ) ;
#166 = CARTESIAN_POINT ( 'NONE',  ( -25.00000000000000000, 0.0000000000000000000, 0.0000000000000000000 ) ) ;
#167 = MECHANICAL_CONTEXT ( 'NONE', #97, 'mechanical' ) ;
#168 = ORIENTED_EDGE ( 'NONE', *, *, #44, .F. ) ;
#169 = PERSON_AND_ORGANIZATION_ROLE ( 'creator' ) ;
#170 = PERSON_AND_ORGANIZATION ( #121, #86 ) ;
#171 = DATE_AND_TIME ( #162, #99 ) ;
#172 = AXIS2_PLACEMENT_3D ( 'NONE', #48, #7, #98 ) ;
#173 = ADVANCED_FACE ( 'NONE', ( #38 ), #67, .F. ) ;
#174 = DATE_TIME_ROLE ( 'classification_date' ) ;
#175 = VERTEX_POINT ( 'NONE', #124 ) ;
ENDSEC;
END-ISO-10303-21;
