ISO-10303-21;
HEADER;
FILE_DESCRIPTION (( 'STEP AP203' ),
    '1' );
FILE_NAME ('Ø50mm High Energy Laser Line Polarizer_86714.step',
    '2018-07-19T13:02:03',
    ( '' ),
    ( '' ),
    'SwSTEP 2.0',
    'SolidWorks 2016',
    '' );
FILE_SCHEMA (( 'CONFIG_CONTROL_DESIGN' ));
ENDSEC;

DATA;
#1 = DIRECTION ( 'NONE',  ( 0.0000000000000000000, 0.0000000000000000000, -1.000000000000000000 ) ) ;
#2 = AXIS2_PLACEMENT_3D ( 'NONE', #101, #144, #193 ) ;
#3 = LINE ( 'NONE', #52, #51 ) ;
#4 = APPROVAL_ROLE ( '' ) ;
#5 = FACE_OUTER_BOUND ( 'NONE', #53, .T. ) ;
#6 = ORIENTED_EDGE ( 'NONE', *, *, #245, .T. ) ;
#7 = DIRECTION ( 'NONE',  ( -0.0000000000000000000, -0.0000000000000000000, 1.000000000000000000 ) ) ;
#8 = VERTEX_POINT ( 'NONE', #152 ) ;
#9 = APPROVAL ( #40, 'UNSPECIFIED' ) ;
#10 = CARTESIAN_POINT ( 'NONE',  ( -0.8596363832680253800, 1.220614474678271000, -0.4867995799369356800 ) ) ;
#11 = AXIS2_PLACEMENT_3D ( 'NONE', #115, #162, #47 ) ;
#12 = CC_DESIGN_APPROVAL ( #212, ( #78 ) ) ;
#13 = COORDINATED_UNIVERSAL_TIME_OFFSET ( 5, 0, .BEHIND. ) ;
#14 = DIRECTION ( 'NONE',  ( 1.000000000000000000, 0.0000000000000000000, 0.0000000000000000000 ) ) ;
#15 = ADVANCED_FACE ( 'NONE', ( #256 ), #142, .T. ) ;
#16 = ORIENTED_EDGE ( 'NONE', *, *, #98, .T. ) ;
#17 = CC_DESIGN_APPROVAL ( #169, ( #49 ) ) ;
#18 = CARTESIAN_POINT ( 'NONE',  ( -0.8596363832680253800, 1.220614474678271000, -0.2575388198975657700 ) ) ;
#19 = EDGE_CURVE ( 'NONE', #92, #8, #156, .T. ) ;
#20 = CARTESIAN_POINT ( 'NONE',  ( -1.843888351771962400, 1.220614474678271000, -0.2644985322991401100 ) ) ;
#21 = CARTESIAN_POINT ( 'NONE',  ( -0.8596363832680253800, 1.220614474678271000, -0.2575388198975657700 ) ) ;
#22 = CC_DESIGN_DATE_AND_TIME_ASSIGNMENT ( #69, #129, ( #49 ) ) ;
#23 = MECHANICAL_CONTEXT ( 'NONE', #44, 'mechanical' ) ;
#24 = SECURITY_CLASSIFICATION_LEVEL ( 'unclassified' ) ;
#25 = LOCAL_TIME ( 9, 2, 3.000000000000000000, #125 ) ;
#26 = VERTEX_POINT ( 'NONE', #235 ) ;
#27 = DESIGN_CONTEXT ( 'detailed design', #266, 'design' ) ;
#28 = DIRECTION ( 'NONE',  ( 0.0000000000000000000, 0.0000000000000000000, 1.000000000000000000 ) ) ;
#29 = PERSON_AND_ORGANIZATION ( #244, #191 ) ;
#30 = EDGE_LOOP ( 'NONE', ( #164, #242, #119, #229 ) ) ;
#31 = LINE ( 'NONE', #89, #50 ) ;
#32 = AXIS2_PLACEMENT_3D ( 'NONE', #67, #28, #197 ) ;
#33 = PERSON_AND_ORGANIZATION ( #244, #191 ) ;
#34 = CARTESIAN_POINT ( 'NONE',  ( -0.8596363832680253800, 1.220614474678271000, -0.4867995799369356800 ) ) ;
#35 = CC_DESIGN_SECURITY_CLASSIFICATION ( #78, ( #184 ) ) ;
#36 = DIRECTION ( 'NONE',  ( 1.000000000000000000, 0.0000000000000000000, 0.0000000000000000000 ) ) ;
#37 = DIRECTION ( 'NONE',  ( 1.000000000000000000, 0.0000000000000000000, 0.0000000000000000000 ) ) ;
#38 = EDGE_CURVE ( 'NONE', #208, #8, #109, .T. ) ;
#39 = FACE_OUTER_BOUND ( 'NONE', #80, .T. ) ;
#40 = APPROVAL_STATUS ( 'not_yet_approved' ) ;
#41 = PERSON_AND_ORGANIZATION_ROLE ( 'classification_officer' ) ;
#42 = CC_DESIGN_APPROVAL ( #9, ( #184 ) ) ;
#43 = LINE ( 'NONE', #269, #79 ) ;
#44 = APPLICATION_CONTEXT ( 'configuration controlled 3d designs of mechanical parts and assemblies' ) ;
#45 = DIRECTION ( 'NONE',  ( 1.000000000000000000, 0.0000000000000000000, 0.0000000000000000000 ) ) ;
#46 = EDGE_CURVE ( 'NONE', #157, #208, #43, .T. ) ;
#47 = DIRECTION ( 'NONE',  ( 1.000000000000000000, 0.0000000000000000000, -0.0000000000000000000 ) ) ;
#48 = COORDINATED_UNIVERSAL_TIME_OFFSET ( 5, 0, .BEHIND. ) ;
#49 = PRODUCT_DEFINITION ( 'UNKNOWN', '', #184, #27 ) ;
#50 = VECTOR ( 'NONE', #103, 39.37007874015748100 ) ;
#51 = VECTOR ( 'NONE', #166, 39.37007874015748100 ) ;
#52 = CARTESIAN_POINT ( 'NONE',  ( 0.1246155852359116800, 1.220614474678271000, -0.4867995799369356800 ) ) ;
#53 = EDGE_LOOP ( 'NONE', ( #116, #63, #167, #183 ) ) ;
#54 = VERTEX_POINT ( 'NONE', #113 ) ;
#55 = CC_DESIGN_PERSON_AND_ORGANIZATION_ASSIGNMENT ( #270, #41, ( #78 ) ) ;
#56 = CONICAL_SURFACE ( 'NONE', #232, 0.9772922561023629200, 0.7853981633974385100 ) ;
#57 = ADVANCED_FACE ( 'NONE', ( #39 ), #268, .T. ) ;
#58 = DIRECTION ( 'NONE',  ( -0.0000000000000000000, -0.0000000000000000000, -1.000000000000000000 ) ) ;
#59 = DIRECTION ( 'NONE',  ( 0.0000000000000000000, 0.0000000000000000000, 1.000000000000000000 ) ) ;
#60 = AXIS2_PLACEMENT_3D ( 'NONE', #215, #260, #111 ) ;
#61 = APPROVAL_DATE_TIME ( #214, #9 ) ;
#62 = FACE_OUTER_BOUND ( 'NONE', #196, .T. ) ;
#63 = ORIENTED_EDGE ( 'NONE', *, *, #245, .F. ) ;
#64 = DIRECTION ( 'NONE',  ( -0.0000000000000000000, -0.0000000000000000000, -1.000000000000000000 ) ) ;
#65 = CYLINDRICAL_SURFACE ( 'NONE', #168, 0.9842519685039370400 ) ;
#66 = EDGE_LOOP ( 'NONE', ( #102, #16, #91, #274 ) ) ;
#67 = CARTESIAN_POINT ( 'NONE',  ( -0.8596363832680253800, 1.220614474678271000, -0.4937592923385106800 ) ) ;
#68 = CARTESIAN_POINT ( 'NONE',  ( 0.1176558728343374800, 1.220614474678271000, -0.2575388198975657700 ) ) ;
#69 = DATE_AND_TIME ( #246, #231 ) ;
#70 = DIRECTION ( 'NONE',  ( -0.7071067811865405800, 0.0000000000000000000, -0.7071067811865544600 ) ) ;
#71 = FACE_OUTER_BOUND ( 'NONE', #233, .T. ) ;
#72 = ORIENTED_EDGE ( 'NONE', *, *, #82, .F. ) ;
#73 = APPROVAL_DATE_TIME ( #226, #212 ) ;
#74 = FACE_OUTER_BOUND ( 'NONE', #199, .T. ) ;
#75 = ADVANCED_FACE ( 'NONE', ( #90 ), #265, .T. ) ;
#76 = UNCERTAINTY_MEASURE_WITH_UNIT (LENGTH_MEASURE( 1.000000000000000100E-005 ), #254, 'distance_accuracy_value', 'NONE');
#77 = APPROVAL_PERSON_ORGANIZATION ( #241, #169, #151 ) ;
#78 = SECURITY_CLASSIFICATION ( '', '', #24 ) ;
#79 = VECTOR ( 'NONE', #70, 39.37007874015748100 ) ;
#80 = EDGE_LOOP ( 'NONE', ( #6, #277 ) ) ;
#81 = CARTESIAN_POINT ( 'NONE',  ( -0.8596363832680253800, 1.220614474678271000, -0.4937592923385106800 ) ) ;
#82 = EDGE_CURVE ( 'NONE', #8, #26, #198, .T. ) ;
#83 = ADVANCED_FACE ( 'NONE', ( #248 ), #94, .F. ) ;
#84 = CARTESIAN_POINT ( 'NONE',  ( 0.0000000000000000000, 0.0000000000000000000, 0.0000000000000000000 ) ) ;
#85 = COORDINATED_UNIVERSAL_TIME_OFFSET ( 5, 0, .BEHIND. ) ;
#86 = DIRECTION ( 'NONE',  ( 1.000000000000000000, 0.0000000000000000000, 0.0000000000000000000 ) ) ;
#87 = VECTOR ( 'NONE', #128, 39.37007874015748100 ) ;
#88 = CARTESIAN_POINT ( 'NONE',  ( 0.1176558728343366600, 1.220614474678271000, -0.4937592923385106800 ) ) ;
#89 = CARTESIAN_POINT ( 'NONE',  ( 0.1246155852359116800, 1.220614474678271000, -0.2575388198975657700 ) ) ;
#90 = FACE_OUTER_BOUND ( 'NONE', #66, .T. ) ;
#91 = ORIENTED_EDGE ( 'NONE', *, *, #228, .F. ) ;
#92 = VERTEX_POINT ( 'NONE', #160 ) ;
#93 = AXIS2_PLACEMENT_3D ( 'NONE', #117, #220, #271 ) ;
#94 = PLANE ( 'NONE',  #32 ) ;
#95 = CC_DESIGN_PERSON_AND_ORGANIZATION_ASSIGNMENT ( #250, #172, ( #184 ) ) ;
#96 = CIRCLE ( 'NONE', #155, 0.9772922561023629200 ) ;
#97 = LINE ( 'NONE', #68, #223 ) ;
#98 = EDGE_CURVE ( 'NONE', #54, #192, #97, .T. ) ;
#99 = CARTESIAN_POINT ( 'NONE',  ( -0.8596363832680253800, 1.220614474678271000, -0.4937592923385106800 ) ) ;
#100 = EDGE_CURVE ( 'NONE', #92, #179, #178, .T. ) ;
#101 = CARTESIAN_POINT ( 'NONE',  ( -0.8596363832680253800, 1.220614474678271000, -0.4867995799369356800 ) ) ;
#102 = ORIENTED_EDGE ( 'NONE', *, *, #138, .F. ) ;
#103 = DIRECTION ( 'NONE',  ( -0.0000000000000000000, -0.0000000000000000000, -1.000000000000000000 ) ) ;
#104 = DIRECTION ( 'NONE',  ( 1.000000000000000000, 0.0000000000000000000, 0.0000000000000000000 ) ) ;
#105 = DIRECTION ( 'NONE',  ( 0.0000000000000000000, 0.0000000000000000000, -1.000000000000000000 ) ) ;
#106 = CALENDAR_DATE ( 2018, 19, 7 ) ;
#107 = CARTESIAN_POINT ( 'NONE',  ( -0.8596363832680253800, 1.220614474678271000, -0.4867995799369356800 ) ) ;
#108 = CIRCLE ( 'NONE', #141, 0.9772922561023629200 ) ;
#109 = LINE ( 'NONE', #218, #135 ) ;
#110 = APPROVAL_STATUS ( 'not_yet_approved' ) ;
#111 = DIRECTION ( 'NONE',  ( -1.000000000000000000, 0.0000000000000000000, 0.0000000000000000000 ) ) ;
#112 = EDGE_CURVE ( 'NONE', #192, #208, #236, .T. ) ;
#113 = CARTESIAN_POINT ( 'NONE',  ( 0.1176558728343374800, 1.220614474678271000, -0.2575388198975657700 ) ) ;
#114 = PERSON_AND_ORGANIZATION_ROLE ( 'design_owner' ) ;
#115 = CARTESIAN_POINT ( 'NONE',  ( -0.8596363832680253800, 1.220614474678271000, -0.2575388198975657700 ) ) ;
#116 = ORIENTED_EDGE ( 'NONE', *, *, #98, .F. ) ;
#117 = CARTESIAN_POINT ( 'NONE',  ( -0.8596363832680253800, 1.220614474678271000, -0.2575388198975657700 ) ) ;
#118 = ORIENTED_EDGE ( 'NONE', *, *, #100, .F. ) ;
#119 = ORIENTED_EDGE ( 'NONE', *, *, #216, .T. ) ;
#120 = EDGE_CURVE ( 'NONE', #179, #26, #3, .T. ) ;
#121 = CONICAL_SURFACE ( 'NONE', #221, 0.9842519685039370400, 0.7853981633974482800 ) ;
#122 = DIRECTION ( 'NONE',  ( 0.0000000000000000000, 0.0000000000000000000, 1.000000000000000000 ) ) ;
#123 = EDGE_CURVE ( 'NONE', #179, #92, #177, .T. ) ;
#124 = DIRECTION ( 'NONE',  ( 1.000000000000000000, 0.0000000000000000000, 0.0000000000000000000 ) ) ;
#125 = COORDINATED_UNIVERSAL_TIME_OFFSET ( 5, 0, .BEHIND. ) ;
#126 = AXIS2_PLACEMENT_3D ( 'NONE', #276, #105, #36 ) ;
#127 = APPLICATION_PROTOCOL_DEFINITION ( 'international standard', 'config_control_design', 1994, #266 ) ;
#128 = DIRECTION ( 'NONE',  ( -0.7071067811865475700, 8.659560562354931600E-017, 0.7071067811865474600 ) ) ;
#129 = DATE_TIME_ROLE ( 'creation_date' ) ;
#130 = APPROVAL_DATE_TIME ( #247, #169 ) ;
#131 = ORIENTED_EDGE ( 'NONE', *, *, #120, .T. ) ;
#132 = APPLICATION_PROTOCOL_DEFINITION ( 'international standard', 'config_control_design', 1994, #44 ) ;
#133 = AXIS2_PLACEMENT_3D ( 'NONE', #10, #7, #45 ) ;
#134 = EDGE_LOOP ( 'NONE', ( #257, #171 ) ) ;
#135 = VECTOR ( 'NONE', #201, 39.37007874015748100 ) ;
#136 = ORIENTED_EDGE ( 'NONE', *, *, #19, .F. ) ;
#137 = CC_DESIGN_DATE_AND_TIME_ASSIGNMENT ( #154, #176, ( #78 ) ) ;
#138 = EDGE_CURVE ( 'NONE', #54, #157, #96, .T. ) ;
#139 = ORIENTED_EDGE ( 'NONE', *, *, #120, .F. ) ;
#140 = ADVANCED_FACE ( 'NONE', ( #62 ), #121, .T. ) ;
#141 = AXIS2_PLACEMENT_3D ( 'NONE', #170, #59, #86 ) ;
#142 = CYLINDRICAL_SURFACE ( 'NONE', #60, 0.9842519685039370400 ) ;
#143 = DIRECTION ( 'NONE',  ( -0.0000000000000000000, -0.0000000000000000000, -1.000000000000000000 ) ) ;
#144 = DIRECTION ( 'NONE',  ( -0.0000000000000000000, -0.0000000000000000000, 1.000000000000000000 ) ) ;
#145 = AXIS2_PLACEMENT_3D ( 'NONE', #81, #64, #253 ) ;
#146 = CARTESIAN_POINT ( 'NONE',  ( 0.1246155852359116800, 1.220614474678271000, -0.2644985322991401100 ) ) ;
#147 = CARTESIAN_POINT ( 'NONE',  ( -0.8596363832680253800, 1.220614474678271000, -0.2644985322991401100 ) ) ;
#148 = ADVANCED_BREP_SHAPE_REPRESENTATION ( '+50mm High Energy Laser Line Polarizer_86714', ( #205, #255 ), #180 ) ;
#149 = CIRCLE ( 'NONE', #161, 0.9842519685039370400 ) ;
#150 = CARTESIAN_POINT ( 'NONE',  ( -1.843888351771962400, 1.220614474678271000, -0.4867995799369356800 ) ) ;
#151 = APPROVAL_ROLE ( '' ) ;
#152 = CARTESIAN_POINT ( 'NONE',  ( -1.843888351771962400, 1.220614474678271000, -0.4867995799369356800 ) ) ;
#153 = APPROVAL_ROLE ( '' ) ;
#154 = DATE_AND_TIME ( #262, #181 ) ;
#155 = AXIS2_PLACEMENT_3D ( 'NONE', #259, #122, #104 ) ;
#156 = LINE ( 'NONE', #150, #87 ) ;
#157 = VERTEX_POINT ( 'NONE', #258 ) ;
#158 = CC_DESIGN_PERSON_AND_ORGANIZATION_ASSIGNMENT ( #234, #239, ( #49 ) ) ;
#159 = LOCAL_TIME ( 9, 2, 3.000000000000000000, #275 ) ;
#160 = CARTESIAN_POINT ( 'NONE',  ( -1.836928639370387400, 1.220614474678271000, -0.4937592923385106800 ) ) ;
#161 = AXIS2_PLACEMENT_3D ( 'NONE', #107, #278, #124 ) ;
#162 = DIRECTION ( 'NONE',  ( 0.0000000000000000000, 0.0000000000000000000, 1.000000000000000000 ) ) ;
#163 = APPROVAL_PERSON_ORGANIZATION ( #29, #9, #4 ) ;
#164 = ORIENTED_EDGE ( 'NONE', *, *, #228, .T. ) ;
#165 = CONICAL_SURFACE ( 'NONE', #2, 0.9842519685039370400, 0.7853981633974482800 ) ;
#166 = DIRECTION ( 'NONE',  ( 0.7071067811865475700, 0.0000000000000000000, 0.7071067811865474600 ) ) ;
#167 = ORIENTED_EDGE ( 'NONE', *, *, #46, .T. ) ;
#168 = AXIS2_PLACEMENT_3D ( 'NONE', #21, #58, #190 ) ;
#169 = APPROVAL ( #110, 'UNSPECIFIED' ) ;
#170 = CARTESIAN_POINT ( 'NONE',  ( -0.8596363832680253800, 1.220614474678271000, -0.2575388198975657700 ) ) ;
#171 = ORIENTED_EDGE ( 'NONE', *, *, #100, .T. ) ;
#172 = PERSON_AND_ORGANIZATION_ROLE ( 'design_supplier' ) ;
#173 = PRODUCT_DEFINITION_SHAPE ( 'NONE', 'NONE',  #49 ) ;
#174 =( NAMED_UNIT ( * ) SI_UNIT ( $, .STERADIAN. ) SOLID_ANGLE_UNIT ( ) );
#175 = ORIENTED_EDGE ( 'NONE', *, *, #112, .T. ) ;
#176 = DATE_TIME_ROLE ( 'classification_date' ) ;
#177 = CIRCLE ( 'NONE', #145, 0.9772922561023620300 ) ;
#178 = CIRCLE ( 'NONE', #240, 0.9772922561023620300 ) ;
#179 = VERTEX_POINT ( 'NONE', #88 ) ;
#180 =( GEOMETRIC_REPRESENTATION_CONTEXT ( 3 ) GLOBAL_UNCERTAINTY_ASSIGNED_CONTEXT ( ( #76 ) ) GLOBAL_UNIT_ASSIGNED_CONTEXT ( ( #254, #210, #174 ) ) REPRESENTATION_CONTEXT ( 'NONE', 'WORKASPACE' ) );
#181 = LOCAL_TIME ( 9, 2, 3.000000000000000000, #48 ) ;
#182 = CALENDAR_DATE ( 2018, 19, 7 ) ;
#183 = ORIENTED_EDGE ( 'NONE', *, *, #112, .F. ) ;
#184 = PRODUCT_DEFINITION_FORMATION_WITH_SPECIFIED_SOURCE ( 'ANY', '', #272, .NOT_KNOWN. ) ;
#185 = AXIS2_PLACEMENT_3D ( 'NONE', #147, #1, #37 ) ;
#186 = ORIENTED_EDGE ( 'NONE', *, *, #123, .F. ) ;
#187 = DIRECTION ( 'NONE',  ( 1.000000000000000000, 0.0000000000000000000, 0.0000000000000000000 ) ) ;
#188 =( LENGTH_UNIT ( ) NAMED_UNIT ( * ) SI_UNIT ( $, .METRE. ) );
#189 = PRODUCT_RELATED_PRODUCT_CATEGORY ( 'detail', '', ( #272 ) ) ;
#190 = DIRECTION ( 'NONE',  ( -1.000000000000000000, 0.0000000000000000000, 0.0000000000000000000 ) ) ;
#191 = ORGANIZATION ( 'UNSPECIFIED', 'UNSPECIFIED', '' ) ;
#192 = VERTEX_POINT ( 'NONE', #146 ) ;
#193 = DIRECTION ( 'NONE',  ( 1.000000000000000000, 0.0000000000000000000, 0.0000000000000000000 ) ) ;
#194 = LENGTH_MEASURE_WITH_UNIT ( LENGTH_MEASURE( 0.02539999999999999900 ), #188 );
#195 = ORIENTED_EDGE ( 'NONE', *, *, #82, .T. ) ;
#196 = EDGE_LOOP ( 'NONE', ( #118, #219, #252, #139 ) ) ;
#197 = DIRECTION ( 'NONE',  ( 1.000000000000000000, 0.0000000000000000000, -0.0000000000000000000 ) ) ;
#198 = CIRCLE ( 'NONE', #133, 0.9842519685039370400 ) ;
#199 = EDGE_LOOP ( 'NONE', ( #136, #186, #131, #72 ) ) ;
#200 = CC_DESIGN_PERSON_AND_ORGANIZATION_ASSIGNMENT ( #273, #217, ( #184 ) ) ;
#201 = DIRECTION ( 'NONE',  ( -0.0000000000000000000, -0.0000000000000000000, -1.000000000000000000 ) ) ;
#202 = CC_DESIGN_PERSON_AND_ORGANIZATION_ASSIGNMENT ( #251, #114, ( #272 ) ) ;
#203 = SHAPE_DEFINITION_REPRESENTATION ( #173, #148 ) ;
#204 = CALENDAR_DATE ( 2018, 19, 7 ) ;
#205 = MANIFOLD_SOLID_BREP ( '83977410-1-solid1', #238 ) ;
#206 = ADVANCED_FACE ( 'NONE', ( #74 ), #165, .T. ) ;
#207 = ADVANCED_FACE ( 'NONE', ( #71 ), #65, .T. ) ;
#208 = VERTEX_POINT ( 'NONE', #20 ) ;
#209 = ORIENTED_EDGE ( 'NONE', *, *, #224, .F. ) ;
#210 =( NAMED_UNIT ( * ) PLANE_ANGLE_UNIT ( ) SI_UNIT ( $, .RADIAN. ) );
#211 = DIRECTION ( 'NONE',  ( 0.0000000000000000000, 0.0000000000000000000, 1.000000000000000000 ) ) ;
#212 = APPROVAL ( #263, 'UNSPECIFIED' ) ;
#213 = DIRECTION ( 'NONE',  ( -0.0000000000000000000, -0.0000000000000000000, 1.000000000000000000 ) ) ;
#214 = DATE_AND_TIME ( #106, #249 ) ;
#215 = CARTESIAN_POINT ( 'NONE',  ( -0.8596363832680253800, 1.220614474678271000, -0.2575388198975657700 ) ) ;
#216 = EDGE_CURVE ( 'NONE', #26, #8, #149, .T. ) ;
#217 = PERSON_AND_ORGANIZATION_ROLE ( 'creator' ) ;
#218 = CARTESIAN_POINT ( 'NONE',  ( -1.843888351771962400, 1.220614474678271000, -0.2575388198975657700 ) ) ;
#219 = ORIENTED_EDGE ( 'NONE', *, *, #19, .T. ) ;
#220 = DIRECTION ( 'NONE',  ( 0.0000000000000000000, 0.0000000000000000000, -1.000000000000000000 ) ) ;
#221 = AXIS2_PLACEMENT_3D ( 'NONE', #34, #213, #187 ) ;
#222 = CIRCLE ( 'NONE', #185, 0.9842519685039370400 ) ;
#223 = VECTOR ( 'NONE', #243, 39.37007874015748100 ) ;
#224 = EDGE_CURVE ( 'NONE', #192, #26, #31, .T. ) ;
#225 = DIMENSIONAL_EXPONENTS ( 1.000000000000000000, 0.0000000000000000000, 0.0000000000000000000, 0.0000000000000000000, 0.0000000000000000000, 0.0000000000000000000, 0.0000000000000000000 ) ;
#226 = DATE_AND_TIME ( #204, #159 ) ;
#227 = ADVANCED_FACE ( 'NONE', ( #5 ), #56, .T. ) ;
#228 = EDGE_CURVE ( 'NONE', #208, #192, #222, .T. ) ;
#229 = ORIENTED_EDGE ( 'NONE', *, *, #38, .F. ) ;
#230 = DIRECTION ( 'NONE',  ( -1.000000000000000000, 0.0000000000000000000, 0.0000000000000000000 ) ) ;
#231 = LOCAL_TIME ( 9, 2, 3.000000000000000000, #13 ) ;
#232 = AXIS2_PLACEMENT_3D ( 'NONE', #18, #261, #230 ) ;
#233 = EDGE_LOOP ( 'NONE', ( #209, #175, #267, #195 ) ) ;
#234 = PERSON_AND_ORGANIZATION ( #244, #191 ) ;
#235 = CARTESIAN_POINT ( 'NONE',  ( 0.1246155852359116800, 1.220614474678271000, -0.4867995799369356800 ) ) ;
#236 = CIRCLE ( 'NONE', #126, 0.9842519685039370400 ) ;
#237 = DIRECTION ( 'NONE',  ( 1.000000000000000000, 0.0000000000000000000, 0.0000000000000000000 ) ) ;
#238 = CLOSED_SHELL ( 'NONE', ( #75, #140, #15, #207, #57, #83, #206, #227 ) ) ;
#239 = PERSON_AND_ORGANIZATION_ROLE ( 'creator' ) ;
#240 = AXIS2_PLACEMENT_3D ( 'NONE', #99, #143, #14 ) ;
#241 = PERSON_AND_ORGANIZATION ( #244, #191 ) ;
#242 = ORIENTED_EDGE ( 'NONE', *, *, #224, .T. ) ;
#243 = DIRECTION ( 'NONE',  ( 0.7071067811865405800, 8.659560562354847800E-017, -0.7071067811865544600 ) ) ;
#244 = PERSON ( 'UNSPECIFIED', 'UNSPECIFIED', 'UNSPECIFIED', ('UNSPECIFIED'), ('UNSPECIFIED'), ('UNSPECIFIED') ) ;
#245 = EDGE_CURVE ( 'NONE', #157, #54, #108, .T. ) ;
#246 = CALENDAR_DATE ( 2018, 19, 7 ) ;
#247 = DATE_AND_TIME ( #182, #25 ) ;
#248 = FACE_OUTER_BOUND ( 'NONE', #134, .T. ) ;
#249 = LOCAL_TIME ( 9, 2, 3.000000000000000000, #85 ) ;
#250 = PERSON_AND_ORGANIZATION ( #244, #191 ) ;
#251 = PERSON_AND_ORGANIZATION ( #244, #191 ) ;
#252 = ORIENTED_EDGE ( 'NONE', *, *, #216, .F. ) ;
#253 = DIRECTION ( 'NONE',  ( 1.000000000000000000, 0.0000000000000000000, 0.0000000000000000000 ) ) ;
#254 =( CONVERSION_BASED_UNIT ( 'INCH', #194 ) LENGTH_UNIT ( ) NAMED_UNIT ( #225 ) );
#255 = AXIS2_PLACEMENT_3D ( 'NONE', #84, #211, #237 ) ;
#256 = FACE_OUTER_BOUND ( 'NONE', #30, .T. ) ;
#257 = ORIENTED_EDGE ( 'NONE', *, *, #123, .T. ) ;
#258 = CARTESIAN_POINT ( 'NONE',  ( -1.836928639370388300, 1.220614474678271000, -0.2575388198975657700 ) ) ;
#259 = CARTESIAN_POINT ( 'NONE',  ( -0.8596363832680253800, 1.220614474678271000, -0.2575388198975657700 ) ) ;
#260 = DIRECTION ( 'NONE',  ( -0.0000000000000000000, -0.0000000000000000000, -1.000000000000000000 ) ) ;
#261 = DIRECTION ( 'NONE',  ( 0.0000000000000000000, 0.0000000000000000000, -1.000000000000000000 ) ) ;
#262 = CALENDAR_DATE ( 2018, 19, 7 ) ;
#263 = APPROVAL_STATUS ( 'not_yet_approved' ) ;
#264 = APPROVAL_PERSON_ORGANIZATION ( #33, #212, #153 ) ;
#265 = CONICAL_SURFACE ( 'NONE', #93, 0.9772922561023629200, 0.7853981633974385100 ) ;
#266 = APPLICATION_CONTEXT ( 'configuration controlled 3d designs of mechanical parts and assemblies' ) ;
#267 = ORIENTED_EDGE ( 'NONE', *, *, #38, .T. ) ;
#268 = PLANE ( 'NONE',  #11 ) ;
#269 = CARTESIAN_POINT ( 'NONE',  ( -1.836928639370388300, 1.220614474678271000, -0.2575388198975657700 ) ) ;
#270 = PERSON_AND_ORGANIZATION ( #244, #191 ) ;
#271 = DIRECTION ( 'NONE',  ( -1.000000000000000000, 0.0000000000000000000, 0.0000000000000000000 ) ) ;
#272 = PRODUCT ( 'Ø50mm High Energy Laser Line Polarizer_86714', 'Ø50mm High Energy Laser Line Polarizer_86714', '', ( #23 ) ) ;
#273 = PERSON_AND_ORGANIZATION ( #244, #191 ) ;
#274 = ORIENTED_EDGE ( 'NONE', *, *, #46, .F. ) ;
#275 = COORDINATED_UNIVERSAL_TIME_OFFSET ( 5, 0, .BEHIND. ) ;
#276 = CARTESIAN_POINT ( 'NONE',  ( -0.8596363832680253800, 1.220614474678271000, -0.2644985322991401100 ) ) ;
#277 = ORIENTED_EDGE ( 'NONE', *, *, #138, .T. ) ;
#278 = DIRECTION ( 'NONE',  ( -0.0000000000000000000, -0.0000000000000000000, 1.000000000000000000 ) ) ;
ENDSEC;
END-ISO-10303-21;
