ISO-10303-21;
HEADER;
FILE_DESCRIPTION (( 'STEP AP203' ),
    '1' );
FILE_NAME ('24958-E0W.STEP',
    '2012-10-01T14:07:19',
    ( 'Admin' ),
    ( 'Thorlabs, Inc.' ),
    'SwSTEP 2.0',
    'SolidWorks 2011',
    '' );
FILE_SCHEMA (( 'CONFIG_CONTROL_DESIGN' ));
ENDSEC;

DATA;
#1 = ORIENTED_EDGE ( 'NONE', *, *, #25, .F. ) ;
#2 = ORIENTED_EDGE ( 'NONE', *, *, #19, .F. ) ;
#3 = ORIENTED_EDGE ( 'NONE', *, *, #6, .T. ) ;
#4 = ORIENTED_EDGE ( 'NONE', *, *, #17, .T. ) ;
#5 = ORIENTED_EDGE ( 'NONE', *, *, #18, .F. ) ;
#6 = EDGE_CURVE ( 'NONE', #51, #47, #210, .T. ) ;
#7 = ADVANCED_FACE ( 'NONE', ( #211 ), #119, .T. ) ;
#8 = VERTEX_POINT ( 'NONE', #112 ) ;
#9 = ORIENTED_EDGE ( 'NONE', *, *, #48, .F. ) ;
#10 = EDGE_CURVE ( 'NONE', #220, #219, #108, .T. ) ;
#11 = ADVANCED_FACE ( 'NONE', ( #118 ), #117, .F. ) ;
#12 = EDGE_LOOP ( 'NONE', ( #9, #20 ) ) ;
#13 = ORIENTED_EDGE ( 'NONE', *, *, #10, .T. ) ;
#14 = ADVANCED_FACE ( 'NONE', ( #116 ), #114, .T. ) ;
#15 = ORIENTED_EDGE ( 'NONE', *, *, #52, .F. ) ;
#16 = ADVANCED_FACE ( 'NONE', ( #111 ), #215, .T. ) ;
#17 = EDGE_CURVE ( 'NONE', #57, #51, #102, .T. ) ;
#18 = EDGE_CURVE ( 'NONE', #220, #8, #62, .T. ) ;
#19 = EDGE_CURVE ( 'NONE', #219, #8, #71, .T. ) ;
#20 = ORIENTED_EDGE ( 'NONE', *, *, #17, .F. ) ;
#21 = EDGE_LOOP ( 'NONE', ( #15, #4, #3, #1 ) ) ;
#22 = EDGE_LOOP ( 'NONE', ( #5, #13, #56 ) ) ;
#23 = ORIENTED_EDGE ( 'NONE', *, *, #10, .F. ) ;
#24 = EDGE_LOOP ( 'NONE', ( #26, #23, #31, #34 ) ) ;
#25 = EDGE_CURVE ( 'NONE', #90, #47, #196, .T. ) ;
#26 = ORIENTED_EDGE ( 'NONE', *, *, #42, .F. ) ;
#27 = ORIENTED_EDGE ( 'NONE', *, *, #25, .T. ) ;
#28 = EDGE_CURVE ( 'NONE', #41, #46, #186, .T. ) ;
#29 = ADVANCED_FACE ( 'NONE', ( #160 ), #190, .T. ) ;
#30 = ORIENTED_EDGE ( 'NONE', *, *, #92, .F. ) ;
#31 = ORIENTED_EDGE ( 'NONE', *, *, #142, .T. ) ;
#32 = EDGE_LOOP ( 'NONE', ( #30, #27, #39, #33 ) ) ;
#33 = ORIENTED_EDGE ( 'NONE', *, *, #28, .F. ) ;
#34 = ORIENTED_EDGE ( 'NONE', *, *, #28, .T. ) ;
#35 = CLOSED_SHELL ( 'NONE', ( #40, #218, #38, #7, #14, #11, #16, #29, #37 ) ) ;
#36 = ORIENTED_EDGE ( 'NONE', *, *, #140, .T. ) ;
#37 = ADVANCED_FACE ( 'NONE', ( #195 ), #188, .T. ) ;
#38 = ADVANCED_FACE ( 'NONE', ( #155 ), #145, .T. ) ;
#39 = ORIENTED_EDGE ( 'NONE', *, *, #217, .T. ) ;
#40 = ADVANCED_FACE ( 'NONE', ( #148 ), #180, .T. ) ;
#41 = VERTEX_POINT ( 'NONE', #149 ) ;
#42 = EDGE_CURVE ( 'NONE', #219, #46, #174, .T. ) ;
#43 = EDGE_LOOP ( 'NONE', ( #91, #95, #94, #97 ) ) ;
#44 = EDGE_LOOP ( 'NONE', ( #45, #139, #36, #141 ) ) ;
#45 = ORIENTED_EDGE ( 'NONE', *, *, #144, .F. ) ;
#46 = VERTEX_POINT ( 'NONE', #64 ) ;
#47 = VERTEX_POINT ( 'NONE', #181 ) ;
#48 = EDGE_CURVE ( 'NONE', #51, #57, #175, .T. ) ;
#49 =( GEOMETRIC_REPRESENTATION_CONTEXT ( 3 ) GLOBAL_UNCERTAINTY_ASSIGNED_CONTEXT ( ( #121 ) ) GLOBAL_UNIT_ASSIGNED_CONTEXT ( ( #216, #123, #122 ) ) REPRESENTATION_CONTEXT ( 'NONE', 'WORKASPACE' ) );
#50 = MANIFOLD_SOLID_BREP ( '25005-001-1-solid1', #35 ) ;
#51 = VERTEX_POINT ( 'NONE', #158 ) ;
#52 = EDGE_CURVE ( 'NONE', #57, #90, #172, .T. ) ;
#53 = ORIENTED_EDGE ( 'NONE', *, *, #18, .T. ) ;
#54 = ORIENTED_EDGE ( 'NONE', *, *, #144, .T. ) ;
#55 = EDGE_LOOP ( 'NONE', ( #54, #53, #2 ) ) ;
#56 = ORIENTED_EDGE ( 'NONE', *, *, #19, .T. ) ;
#57 = VERTEX_POINT ( 'NONE', #171 ) ;
#58 = ORIENTED_EDGE ( 'NONE', *, *, #6, .F. ) ;
#59 = ORIENTED_EDGE ( 'NONE', *, *, #52, .T. ) ;
#60 = ADVANCED_BREP_SHAPE_REPRESENTATION ( '24958-E0W', ( #50, #287 ), #49 ) ;
#61 = ORIENTED_EDGE ( 'NONE', *, *, #93, .F. ) ;
#62 = CIRCLE ( 'NONE', #207, 115.0199999999999500 ) ;
#63 = DIRECTION ( 'NONE',  ( 1.000000000000000000, 0.0000000000000000000, 0.0000000000000000000 ) ) ;
#64 = CARTESIAN_POINT ( 'NONE',  ( 12.69999999999999800, 0.0000000000000000000, 0.5241642179041259300 ) ) ;
#65 = AXIS2_PLACEMENT_3D ( 'NONE', #197, #194, #193 ) ;
#66 = CARTESIAN_POINT ( 'NONE',  ( 0.0000000000000000000, 0.0000000000000000000, 39.55484952932686600 ) ) ;
#67 = DIRECTION ( 'NONE',  ( 1.000000000000000000, 0.0000000000000000000, 0.0000000000000000000 ) ) ;
#68 = DIRECTION ( 'NONE',  ( -0.0000000000000000000, -0.0000000000000000000, 1.000000000000000000 ) ) ;
#69 = AXIS2_PLACEMENT_3D ( 'NONE', #109, #68, #67 ) ;
#70 = CARTESIAN_POINT ( 'NONE',  ( 0.0000000000000000000, 0.0000000000000000000, -1.349999999999997000 ) ) ;
#71 = CIRCLE ( 'NONE', #65, 115.0199999999999400 ) ;
#72 = DIRECTION ( 'NONE',  ( 1.000000000000000000, 0.0000000000000000000, 0.0000000000000000000 ) ) ;
#73 = CARTESIAN_POINT ( 'NONE',  ( -12.55857864376264400, 1.537982313792423500E-015, 0.6655855741414390400 ) ) ;
#74 = DIRECTION ( 'NONE',  ( 1.000000000000000000, 0.0000000000000000000, 0.0000000000000000000 ) ) ;
#75 = DIRECTION ( 'NONE',  ( -0.0000000000000000000, -0.0000000000000000000, 1.000000000000000000 ) ) ;
#76 = AXIS2_PLACEMENT_3D ( 'NONE', #134, #75, #74 ) ;
#77 = CIRCLE ( 'NONE', #76, 12.55857864376269200 ) ;
#78 = CARTESIAN_POINT ( 'NONE',  ( 12.69999999999999800, 0.0000000000000000000, 39.55484952932686600 ) ) ;
#79 = LINE ( 'NONE', #78, #128 ) ;
#80 = AXIS2_PLACEMENT_3D ( 'NONE', #81, #126, #125 ) ;
#81 = CARTESIAN_POINT ( 'NONE',  ( 0.0000000000000000000, 0.0000000000000000000, 39.55484952932686600 ) ) ;
#82 = DIRECTION ( 'NONE',  ( -0.7071067811865301400, 0.0000000000000000000, -0.7071067811865648900 ) ) ;
#83 = VECTOR ( 'NONE', #82, 1000.000000000000000 ) ;
#84 = CARTESIAN_POINT ( 'NONE',  ( -12.69999999999999800, 0.0000000000000000000, 0.5241642179041259300 ) ) ;
#85 = DIRECTION ( 'NONE',  ( 1.000000000000000000, 0.0000000000000000000, 0.0000000000000000000 ) ) ;
#86 = DIRECTION ( 'NONE',  ( -0.0000000000000000000, -0.0000000000000000000, 1.000000000000000000 ) ) ;
#87 = CARTESIAN_POINT ( 'NONE',  ( 0.0000000000000000000, 0.0000000000000000000, 0.5241642179041259300 ) ) ;
#88 = AXIS2_PLACEMENT_3D ( 'NONE', #87, #86, #85 ) ;
#89 = CIRCLE ( 'NONE', #88, 12.69999999999999800 ) ;
#90 = VERTEX_POINT ( 'NONE', #176 ) ;
#91 = ORIENTED_EDGE ( 'NONE', *, *, #93, .T. ) ;
#92 = EDGE_CURVE ( 'NONE', #90, #41, #137, .T. ) ;
#93 = EDGE_CURVE ( 'NONE', #47, #90, #162, .T. ) ;
#94 = ORIENTED_EDGE ( 'NONE', *, *, #140, .F. ) ;
#95 = ORIENTED_EDGE ( 'NONE', *, *, #92, .T. ) ;
#96 = ORIENTED_EDGE ( 'NONE', *, *, #48, .T. ) ;
#97 = ORIENTED_EDGE ( 'NONE', *, *, #217, .F. ) ;
#98 = DIRECTION ( 'NONE',  ( 0.0000000000000000000, -0.0000000000000000000, 1.000000000000000000 ) ) ;
#99 = CARTESIAN_POINT ( 'NONE',  ( 0.0000000000000000000, 0.0000000000000000000, -1.350000000000000300 ) ) ;
#100 = DIRECTION ( 'NONE',  ( -0.0000000000000000000, -0.0000000000000000000, 1.000000000000000000 ) ) ;
#101 = CARTESIAN_POINT ( 'NONE',  ( 0.0000000000000000000, 0.0000000000000000000, -1.349999999999997000 ) ) ;
#102 = CIRCLE ( 'NONE', #206, 12.55857864376269000 ) ;
#103 = AXIS2_PLACEMENT_3D ( 'NONE', #101, #100, #63 ) ;
#104 = DIRECTION ( 'NONE',  ( 1.000000000000000000, 0.0000000000000000000, 0.0000000000000000000 ) ) ;
#105 = DIRECTION ( 'NONE',  ( -0.0000000000000000000, -0.0000000000000000000, 1.000000000000000000 ) ) ;
#106 = CARTESIAN_POINT ( 'NONE',  ( 0.0000000000000000000, 0.0000000000000000000, 0.6655855741414390400 ) ) ;
#107 = AXIS2_PLACEMENT_3D ( 'NONE', #106, #105, #104 ) ;
#108 = CIRCLE ( 'NONE', #107, 12.55857864376269200 ) ;
#109 = CARTESIAN_POINT ( 'NONE',  ( 0.0000000000000000000, 0.0000000000000000000, -113.6699961895956800 ) ) ;
#110 = AXIS2_PLACEMENT_3D ( 'NONE', #203, #201, #189 ) ;
#111 = FACE_OUTER_BOUND ( 'NONE', #21, .T. ) ;
#112 = CARTESIAN_POINT ( 'NONE',  ( 0.0000000000000000000, 0.0000000000000000000, 1.350000000000000500 ) ) ;
#113 = DIRECTION ( 'NONE',  ( 1.000000000000000000, 0.0000000000000000000, 0.0000000000000000000 ) ) ;
#114 = TOROIDAL_SURFACE ( 'NONE', #69, 0.02960650923488229000, 115.0199999999999500 ) ;
#115 = AXIS2_PLACEMENT_3D ( 'NONE', #99, #98, #72 ) ;
#116 = FACE_OUTER_BOUND ( 'NONE', #22, .T. ) ;
#117 = PLANE ( 'NONE',  #115 ) ;
#118 = FACE_OUTER_BOUND ( 'NONE', #12, .T. ) ;
#119 = TOROIDAL_SURFACE ( 'NONE', #214, 0.02960650923488229000, 115.0199999999999500 ) ;
#120 = VECTOR ( 'NONE', #208, 1000.000000000000000 ) ;
#121 = UNCERTAINTY_MEASURE_WITH_UNIT (LENGTH_MEASURE( 1.000000000000000100E-005 ), #216, 'distance_accuracy_value', 'NONE');
#122 =( NAMED_UNIT ( * ) SI_UNIT ( $, .STERADIAN. ) SOLID_ANGLE_UNIT ( ) );
#123 =( NAMED_UNIT ( * ) PLANE_ANGLE_UNIT ( ) SI_UNIT ( $, .RADIAN. ) );
#124 = CARTESIAN_POINT ( 'NONE',  ( 12.55857864376264400, 0.0000000000000000000, 0.6655855741414390400 ) ) ;
#125 = DIRECTION ( 'NONE',  ( 1.000000000000000000, 0.0000000000000000000, 0.0000000000000000000 ) ) ;
#126 = DIRECTION ( 'NONE',  ( -0.0000000000000000000, -0.0000000000000000000, 1.000000000000000000 ) ) ;
#127 = DIRECTION ( 'NONE',  ( -0.0000000000000000000, -0.0000000000000000000, 1.000000000000000000 ) ) ;
#128 = VECTOR ( 'NONE', #127, 1000.000000000000000 ) ;
#129 = CYLINDRICAL_SURFACE ( 'NONE', #80, 12.69999999999999800 ) ;
#130 = LINE ( 'NONE', #84, #83 ) ;
#131 = DIRECTION ( 'NONE',  ( 1.000000000000000000, 0.0000000000000000000, 0.0000000000000000000 ) ) ;
#132 = DIRECTION ( 'NONE',  ( -0.0000000000000000000, -0.0000000000000000000, 1.000000000000000000 ) ) ;
#133 = CARTESIAN_POINT ( 'NONE',  ( 0.0000000000000000000, 0.0000000000000000000, -1.208578643762690900 ) ) ;
#134 = CARTESIAN_POINT ( 'NONE',  ( 0.0000000000000000000, 0.0000000000000000000, 0.6655855741414390400 ) ) ;
#135 = DIRECTION ( 'NONE',  ( -0.0000000000000000000, -0.0000000000000000000, 1.000000000000000000 ) ) ;
#136 = VECTOR ( 'NONE', #135, 1000.000000000000000 ) ;
#137 = LINE ( 'NONE', #161, #136 ) ;
#138 = FACE_OUTER_BOUND ( 'NONE', #43, .T. ) ;
#139 = ORIENTED_EDGE ( 'NONE', *, *, #42, .T. ) ;
#140 = EDGE_CURVE ( 'NONE', #46, #41, #89, .T. ) ;
#141 = ORIENTED_EDGE ( 'NONE', *, *, #142, .F. ) ;
#142 = EDGE_CURVE ( 'NONE', #220, #41, #130, .T. ) ;
#143 = EDGE_LOOP ( 'NONE', ( #96, #59, #61, #58 ) ) ;
#144 = EDGE_CURVE ( 'NONE', #219, #220, #77, .T. ) ;
#145 = CONICAL_SURFACE ( 'NONE', #202, 12.55857864376269000, 0.7853981633974545000 ) ;
#146 = CARTESIAN_POINT ( 'NONE',  ( 0.0000000000000000000, 0.0000000000000000000, 0.5241642179041259300 ) ) ;
#147 = DIRECTION ( 'NONE',  ( 0.7071067811865301400, 8.659560562354719600E-017, -0.7071067811865648900 ) ) ;
#148 = FACE_OUTER_BOUND ( 'NONE', #44, .T. ) ;
#149 = CARTESIAN_POINT ( 'NONE',  ( -12.69999999999999800, 1.555301434917138200E-015, 0.5241642179041259300 ) ) ;
#150 = DIRECTION ( 'NONE',  ( 1.000000000000000000, 0.0000000000000000000, 0.0000000000000000000 ) ) ;
#151 = DIRECTION ( 'NONE',  ( -0.0000000000000000000, -0.0000000000000000000, 1.000000000000000000 ) ) ;
#152 = DIRECTION ( 'NONE',  ( -1.000000000000000000, 0.0000000000000000000, 0.0000000000000000000 ) ) ;
#153 = DIRECTION ( 'NONE',  ( 0.0000000000000000000, 0.0000000000000000000, -1.000000000000000000 ) ) ;
#154 = CARTESIAN_POINT ( 'NONE',  ( 12.69999999999999800, 1.555301434917138200E-015, 0.5241642179041259300 ) ) ;
#155 = FACE_OUTER_BOUND ( 'NONE', #143, .T. ) ;
#156 = CARTESIAN_POINT ( 'NONE',  ( 0.0000000000000000000, 0.0000000000000000000, -1.349999999999997000 ) ) ;
#157 = AXIS2_PLACEMENT_3D ( 'NONE', #191, #153, #152 ) ;
#158 = CARTESIAN_POINT ( 'NONE',  ( 12.55857864376269000, 0.0000000000000000000, -1.349999999999997000 ) ) ;
#159 = AXIS2_PLACEMENT_3D ( 'NONE', #66, #187, #192 ) ;
#160 = FACE_OUTER_BOUND ( 'NONE', #32, .T. ) ;
#161 = CARTESIAN_POINT ( 'NONE',  ( -12.69999999999999800, 1.555301434917138200E-015, 39.55484952932686600 ) ) ;
#162 = CIRCLE ( 'NONE', #166, 12.69999999999999800 ) ;
#163 = DIRECTION ( 'NONE',  ( -0.7071067811865519000, 8.659560562354987100E-017, 0.7071067811865431300 ) ) ;
#164 = VECTOR ( 'NONE', #163, 1000.000000000000000 ) ;
#165 = CARTESIAN_POINT ( 'NONE',  ( -12.55857864376269000, 1.537982313792428700E-015, -1.349999999999997000 ) ) ;
#166 = AXIS2_PLACEMENT_3D ( 'NONE', #133, #132, #131 ) ;
#167 = DIRECTION ( 'NONE',  ( 1.000000000000000000, 0.0000000000000000000, 0.0000000000000000000 ) ) ;
#168 = DIRECTION ( 'NONE',  ( -0.0000000000000000000, -0.0000000000000000000, 1.000000000000000000 ) ) ;
#169 = CARTESIAN_POINT ( 'NONE',  ( 0.0000000000000000000, 0.0000000000000000000, -1.349999999999997000 ) ) ;
#170 = AXIS2_PLACEMENT_3D ( 'NONE', #169, #168, #167 ) ;
#171 = CARTESIAN_POINT ( 'NONE',  ( -12.55857864376269000, 1.546641874354783400E-015, -1.349999999999997000 ) ) ;
#172 = LINE ( 'NONE', #165, #164 ) ;
#173 = VECTOR ( 'NONE', #147, 1000.000000000000000 ) ;
#174 = LINE ( 'NONE', #154, #173 ) ;
#175 = CIRCLE ( 'NONE', #170, 12.55857864376269000 ) ;
#176 = CARTESIAN_POINT ( 'NONE',  ( -12.69999999999999800, 1.555301434917138200E-015, -1.208578643762690900 ) ) ;
#177 = DIRECTION ( 'NONE',  ( -1.000000000000000000, 0.0000000000000000000, 0.0000000000000000000 ) ) ;
#178 = DIRECTION ( 'NONE',  ( 0.0000000000000000000, 0.0000000000000000000, -1.000000000000000000 ) ) ;
#179 = AXIS2_PLACEMENT_3D ( 'NONE', #146, #178, #177 ) ;
#180 = CONICAL_SURFACE ( 'NONE', #179, 12.69999999999999800, 0.7853981633974237400 ) ;
#181 = CARTESIAN_POINT ( 'NONE',  ( 12.69999999999999800, 0.0000000000000000000, -1.208578643762690900 ) ) ;
#182 = DIRECTION ( 'NONE',  ( 1.000000000000000000, 0.0000000000000000000, 0.0000000000000000000 ) ) ;
#183 = DIRECTION ( 'NONE',  ( -0.0000000000000000000, -0.0000000000000000000, 1.000000000000000000 ) ) ;
#184 = CARTESIAN_POINT ( 'NONE',  ( 0.0000000000000000000, 0.0000000000000000000, 0.5241642179041259300 ) ) ;
#185 = AXIS2_PLACEMENT_3D ( 'NONE', #184, #183, #182 ) ;
#186 = CIRCLE ( 'NONE', #185, 12.69999999999999800 ) ;
#187 = DIRECTION ( 'NONE',  ( -0.0000000000000000000, -0.0000000000000000000, 1.000000000000000000 ) ) ;
#188 = CONICAL_SURFACE ( 'NONE', #157, 12.69999999999999800, 0.7853981633974237400 ) ;
#189 = DIRECTION ( 'NONE',  ( 1.000000000000000000, 0.0000000000000000000, 0.0000000000000000000 ) ) ;
#190 = CYLINDRICAL_SURFACE ( 'NONE', #159, 12.69999999999999800 ) ;
#191 = CARTESIAN_POINT ( 'NONE',  ( 0.0000000000000000000, 0.0000000000000000000, 0.5241642179041259300 ) ) ;
#192 = DIRECTION ( 'NONE',  ( 1.000000000000000000, 0.0000000000000000000, 0.0000000000000000000 ) ) ;
#193 = DIRECTION ( 'NONE',  ( 0.0000000000000000000, 0.0000000000000000000, -1.000000000000000000 ) ) ;
#194 = DIRECTION ( 'NONE',  ( 0.0000000000000000000, -1.000000000000000000, 0.0000000000000000000 ) ) ;
#195 = FACE_OUTER_BOUND ( 'NONE', #24, .T. ) ;
#196 = CIRCLE ( 'NONE', #110, 12.69999999999999800 ) ;
#197 = CARTESIAN_POINT ( 'NONE',  ( 0.02960650923488229000, 0.0000000000000000000, -113.6699961895956800 ) ) ;
#198 = DIRECTION ( 'NONE',  ( -1.000000000000000000, 1.224646799147353200E-016, 0.0000000000000000000 ) ) ;
#199 = DIRECTION ( 'NONE',  ( 1.224646799147353200E-016, 1.000000000000000000, 0.0000000000000000000 ) ) ;
#200 = CARTESIAN_POINT ( 'NONE',  ( -0.02960650923488229000, 3.625751676842514600E-018, -113.6699961895956800 ) ) ;
#201 = DIRECTION ( 'NONE',  ( -0.0000000000000000000, -0.0000000000000000000, 1.000000000000000000 ) ) ;
#202 = AXIS2_PLACEMENT_3D ( 'NONE', #156, #151, #150 ) ;
#203 = CARTESIAN_POINT ( 'NONE',  ( 0.0000000000000000000, 0.0000000000000000000, -1.208578643762690900 ) ) ;
#204 = DIRECTION ( 'NONE',  ( 1.000000000000000000, 0.0000000000000000000, 0.0000000000000000000 ) ) ;
#205 = DIRECTION ( 'NONE',  ( -0.0000000000000000000, -0.0000000000000000000, 1.000000000000000000 ) ) ;
#206 = AXIS2_PLACEMENT_3D ( 'NONE', #70, #205, #204 ) ;
#207 = AXIS2_PLACEMENT_3D ( 'NONE', #200, #199, #198 ) ;
#208 = DIRECTION ( 'NONE',  ( 0.7071067811865519000, 0.0000000000000000000, 0.7071067811865431300 ) ) ;
#209 = CARTESIAN_POINT ( 'NONE',  ( 12.55857864376269000, 0.0000000000000000000, -1.349999999999997000 ) ) ;
#210 = LINE ( 'NONE', #209, #120 ) ;
#211 = FACE_OUTER_BOUND ( 'NONE', #55, .T. ) ;
#212 = DIRECTION ( 'NONE',  ( -0.0000000000000000000, -0.0000000000000000000, 1.000000000000000000 ) ) ;
#213 = CARTESIAN_POINT ( 'NONE',  ( 0.0000000000000000000, 0.0000000000000000000, -113.6699961895956800 ) ) ;
#214 = AXIS2_PLACEMENT_3D ( 'NONE', #213, #212, #113 ) ;
#215 = CONICAL_SURFACE ( 'NONE', #103, 12.55857864376269000, 0.7853981633974545000 ) ;
#216 =( LENGTH_UNIT ( ) NAMED_UNIT ( * ) SI_UNIT ( .MILLI., .METRE. ) );
#217 = EDGE_CURVE ( 'NONE', #47, #46, #79, .T. ) ;
#218 = ADVANCED_FACE ( 'NONE', ( #138 ), #129, .T. ) ;
#219 = VERTEX_POINT ( 'NONE', #124 ) ;
#220 = VERTEX_POINT ( 'NONE', #73 ) ;
#221 = PRODUCT_DEFINITION_SHAPE ( 'NONE', 'NONE',  #284 ) ;
#222 = PRODUCT_RELATED_PRODUCT_CATEGORY ( 'detail', '', ( #295 ) ) ;
#223 = CC_DESIGN_SECURITY_CLASSIFICATION ( #244, ( #263 ) ) ;
#224 = CC_DESIGN_APPROVAL ( #232, ( #244 ) ) ;
#225 = APPROVAL_DATE_TIME ( #226, #232 ) ;
#226 = DATE_AND_TIME ( #227, #228 ) ;
#227 = CALENDAR_DATE ( 2012, 1, 10 ) ;
#228 = LOCAL_TIME ( 10, 7, 19.00000000000000000, #229 ) ;
#229 = COORDINATED_UNIVERSAL_TIME_OFFSET ( 5, 0, .BEHIND. ) ;
#230 = APPROVAL_PERSON_ORGANIZATION ( #234, #232, #231 ) ;
#231 = APPROVAL_ROLE ( '' ) ;
#232 = APPROVAL ( #233, 'UNSPECIFIED' ) ;
#233 = APPROVAL_STATUS ( 'not_yet_approved' ) ;
#234 = PERSON_AND_ORGANIZATION ( #294, #293 ) ;
#235 = CC_DESIGN_DATE_AND_TIME_ASSIGNMENT ( #237, #236, ( #244 ) ) ;
#236 = DATE_TIME_ROLE ( 'classification_date' ) ;
#237 = DATE_AND_TIME ( #238, #239 ) ;
#238 = CALENDAR_DATE ( 2012, 1, 10 ) ;
#239 = LOCAL_TIME ( 10, 7, 19.00000000000000000, #240 ) ;
#240 = COORDINATED_UNIVERSAL_TIME_OFFSET ( 5, 0, .BEHIND. ) ;
#241 = CC_DESIGN_PERSON_AND_ORGANIZATION_ASSIGNMENT ( #243, #242, ( #244 ) ) ;
#242 = PERSON_AND_ORGANIZATION_ROLE ( 'classification_officer' ) ;
#243 = PERSON_AND_ORGANIZATION ( #294, #293 ) ;
#244 = SECURITY_CLASSIFICATION ( '', '', #245 ) ;
#245 = SECURITY_CLASSIFICATION_LEVEL ( 'unclassified' ) ;
#246 = CC_DESIGN_PERSON_AND_ORGANIZATION_ASSIGNMENT ( #248, #247, ( #263 ) ) ;
#247 = PERSON_AND_ORGANIZATION_ROLE ( 'design_supplier' ) ;
#248 = PERSON_AND_ORGANIZATION ( #294, #293 ) ;
#249 = CC_DESIGN_PERSON_AND_ORGANIZATION_ASSIGNMENT ( #251, #250, ( #263 ) ) ;
#250 = PERSON_AND_ORGANIZATION_ROLE ( 'creator' ) ;
#251 = PERSON_AND_ORGANIZATION ( #294, #293 ) ;
#252 = CC_DESIGN_APPROVAL ( #260, ( #263 ) ) ;
#253 = APPROVAL_DATE_TIME ( #254, #260 ) ;
#254 = DATE_AND_TIME ( #255, #256 ) ;
#255 = CALENDAR_DATE ( 2012, 1, 10 ) ;
#256 = LOCAL_TIME ( 10, 7, 19.00000000000000000, #257 ) ;
#257 = COORDINATED_UNIVERSAL_TIME_OFFSET ( 5, 0, .BEHIND. ) ;
#258 = APPROVAL_PERSON_ORGANIZATION ( #262, #260, #259 ) ;
#259 = APPROVAL_ROLE ( '' ) ;
#260 = APPROVAL ( #261, 'UNSPECIFIED' ) ;
#261 = APPROVAL_STATUS ( 'not_yet_approved' ) ;
#262 = PERSON_AND_ORGANIZATION ( #294, #293 ) ;
#263 = PRODUCT_DEFINITION_FORMATION_WITH_SPECIFIED_SOURCE ( 'ANY', '', #295, .NOT_KNOWN. ) ;
#264 = CC_DESIGN_DATE_AND_TIME_ASSIGNMENT ( #266, #265, ( #284 ) ) ;
#265 = DATE_TIME_ROLE ( 'creation_date' ) ;
#266 = DATE_AND_TIME ( #267, #268 ) ;
#267 = CALENDAR_DATE ( 2012, 1, 10 ) ;
#268 = LOCAL_TIME ( 10, 7, 19.00000000000000000, #269 ) ;
#269 = COORDINATED_UNIVERSAL_TIME_OFFSET ( 5, 0, .BEHIND. ) ;
#270 = CC_DESIGN_PERSON_AND_ORGANIZATION_ASSIGNMENT ( #272, #271, ( #284 ) ) ;
#271 = PERSON_AND_ORGANIZATION_ROLE ( 'creator' ) ;
#272 = PERSON_AND_ORGANIZATION ( #294, #293 ) ;
#273 = CC_DESIGN_APPROVAL ( #281, ( #284 ) ) ;
#274 = APPROVAL_DATE_TIME ( #275, #281 ) ;
#275 = DATE_AND_TIME ( #276, #277 ) ;
#276 = CALENDAR_DATE ( 2012, 1, 10 ) ;
#277 = LOCAL_TIME ( 10, 7, 19.00000000000000000, #278 ) ;
#278 = COORDINATED_UNIVERSAL_TIME_OFFSET ( 5, 0, .BEHIND. ) ;
#279 = APPROVAL_PERSON_ORGANIZATION ( #283, #281, #280 ) ;
#280 = APPROVAL_ROLE ( '' ) ;
#281 = APPROVAL ( #282, 'UNSPECIFIED' ) ;
#282 = APPROVAL_STATUS ( 'not_yet_approved' ) ;
#283 = PERSON_AND_ORGANIZATION ( #294, #293 ) ;
#284 = PRODUCT_DEFINITION ( 'UNKNOWN', '', #263, #285 ) ;
#285 = DESIGN_CONTEXT ( 'detailed design', #289, 'design' ) ;
#286 = CARTESIAN_POINT ( 'NONE',  ( 0.0000000000000000000, 0.0000000000000000000, 0.0000000000000000000 ) ) ;
#287 = AXIS2_PLACEMENT_3D ( 'NONE', #286, #301, #299 ) ;
#288 = APPLICATION_PROTOCOL_DEFINITION ( 'international standard', 'config_control_design', 1994, #289 ) ;
#289 = APPLICATION_CONTEXT ( 'configuration controlled 3d designs of mechanical parts and assemblies' ) ;
#290 = CC_DESIGN_PERSON_AND_ORGANIZATION_ASSIGNMENT ( #292, #291, ( #295 ) ) ;
#291 = PERSON_AND_ORGANIZATION_ROLE ( 'design_owner' ) ;
#292 = PERSON_AND_ORGANIZATION ( #294, #293 ) ;
#293 = ORGANIZATION ( 'UNSPECIFIED', 'UNSPECIFIED', '' ) ;
#294 = PERSON ( 'UNSPECIFIED', 'UNSPECIFIED', 'UNSPECIFIED', ('UNSPECIFIED'), ('UNSPECIFIED'), ('UNSPECIFIED') ) ;
#295 = PRODUCT ( '24958-E0W', '24958-E0W', '', ( #296 ) ) ;
#296 = MECHANICAL_CONTEXT ( 'NONE', #300, 'mechanical' ) ;
#297 = APPLICATION_PROTOCOL_DEFINITION ( 'international standard', 'config_control_design', 1994, #300 ) ;
#298 = SHAPE_DEFINITION_REPRESENTATION ( #221, #60 ) ;
#299 = DIRECTION ( 'NONE',  ( 1.000000000000000000, 0.0000000000000000000, 0.0000000000000000000 ) ) ;
#300 = APPLICATION_CONTEXT ( 'configuration controlled 3d designs of mechanical parts and assemblies' ) ;
#301 = DIRECTION ( 'NONE',  ( 0.0000000000000000000, 0.0000000000000000000, 1.000000000000000000 ) ) ;
ENDSEC;
END-ISO-10303-21;
