ISO-10303-21;
HEADER;
FILE_DESCRIPTION (( 'STEP AP203' ),
    '1' );
FILE_NAME ('Web Model 47243.STEP',
    '2017-01-31T15:20:29',
    ( '' ),
    ( '' ),
    'SwSTEP 2.0',
    'SolidWorks 2016',
    '' );
FILE_SCHEMA (( 'CONFIG_CONTROL_DESIGN' ));
ENDSEC;

DATA;
#1 = LINE ( 'NONE', #61, #54 ) ;
#2 = PRODUCT_DEFINITION_FORMATION_WITH_SPECIFIED_SOURCE ( 'ANY', '', #142, .NOT_KNOWN. ) ;
#3 = ORIENTED_EDGE ( 'NONE', *, *, #68, .F. ) ;
#4 = COORDINATED_UNIVERSAL_TIME_OFFSET ( 5, 0, .BEHIND. ) ;
#5 = CALENDAR_DATE ( 2017, 31, 1 ) ;
#6 = VERTEX_POINT ( 'NONE', #151 ) ;
#7 = PLANE ( 'NONE',  #53 ) ;
#8 = DIRECTION ( 'NONE',  ( 0.0000000000000000000, 0.0000000000000000000, 1.000000000000000000 ) ) ;
#9 = LINE ( 'NONE', #173, #39 ) ;
#10 = DIRECTION ( 'NONE',  ( 0.0000000000000000000, 0.0000000000000000000, -1.000000000000000000 ) ) ;
#11 = DIRECTION ( 'NONE',  ( 0.0000000000000000000, 1.000000000000000000, 0.0000000000000000000 ) ) ;
#12 = VECTOR ( 'NONE', #42, 1000.000000000000000 ) ;
#13 = ORIENTED_EDGE ( 'NONE', *, *, #80, .F. ) ;
#14 = CC_DESIGN_PERSON_AND_ORGANIZATION_ASSIGNMENT ( #201, #105, ( #2 ) ) ;
#15 = CARTESIAN_POINT ( 'NONE',  ( 0.0000000000000000000, 50.00000000000000000, 3.000000000000000000 ) ) ;
#16 = PERSON_AND_ORGANIZATION ( #94, #208 ) ;
#17 = LINE ( 'NONE', #200, #218 ) ;
#18 = ORIENTED_EDGE ( 'NONE', *, *, #230, .T. ) ;
#19 = ORIENTED_EDGE ( 'NONE', *, *, #212, .F. ) ;
#20 = ORIENTED_EDGE ( 'NONE', *, *, #49, .T. ) ;
#21 = MANIFOLD_SOLID_BREP ( 'Extrude1', #225 ) ;
#22 = APPROVAL ( #90, 'UNSPECIFIED' ) ;
#23 = DIRECTION ( 'NONE',  ( -0.0000000000000000000, -0.0000000000000000000, -1.000000000000000000 ) ) ;
#24 = ORIENTED_EDGE ( 'NONE', *, *, #212, .T. ) ;
#25 = CARTESIAN_POINT ( 'NONE',  ( 50.00000000000000000, 0.0000000000000000000, 3.000000000000000000 ) ) ;
#26 = EDGE_LOOP ( 'NONE', ( #130, #79, #48, #219 ) ) ;
#27 = CC_DESIGN_APPROVAL ( #22, ( #149 ) ) ;
#28 = MECHANICAL_CONTEXT ( 'NONE', #157, 'mechanical' ) ;
#29 = DIRECTION ( 'NONE',  ( -0.0000000000000000000, -1.000000000000000000, -0.0000000000000000000 ) ) ;
#30 = SECURITY_CLASSIFICATION_LEVEL ( 'unclassified' ) ;
#31 = DATE_AND_TIME ( #204, #92 ) ;
#32 = VECTOR ( 'NONE', #191, 1000.000000000000000 ) ;
#33 = EDGE_LOOP ( 'NONE', ( #69, #3, #63, #176 ) ) ;
#34 = EDGE_CURVE ( 'NONE', #52, #144, #160, .T. ) ;
#35 = SHAPE_DEFINITION_REPRESENTATION ( #126, #168 ) ;
#36 = ORIENTED_EDGE ( 'NONE', *, *, #68, .T. ) ;
#37 = FACE_OUTER_BOUND ( 'NONE', #33, .T. ) ;
#38 = PERSON_AND_ORGANIZATION ( #94, #208 ) ;
#39 = VECTOR ( 'NONE', #194, 1000.000000000000000 ) ;
#40 = VERTEX_POINT ( 'NONE', #118 ) ;
#41 = CARTESIAN_POINT ( 'NONE',  ( 0.0000000000000000000, 0.0000000000000000000, 3.000000000000000000 ) ) ;
#42 = DIRECTION ( 'NONE',  ( -0.0000000000000000000, -0.0000000000000000000, -1.000000000000000000 ) ) ;
#43 = APPROVAL_PERSON_ORGANIZATION ( #38, #161, #138 ) ;
#44 = LINE ( 'NONE', #171, #67 ) ;
#45 = PERSON_AND_ORGANIZATION_ROLE ( 'classification_officer' ) ;
#46 = APPLICATION_CONTEXT ( 'configuration controlled 3d designs of mechanical parts and assemblies' ) ;
#47 = LINE ( 'NONE', #153, #12 ) ;
#48 = ORIENTED_EDGE ( 'NONE', *, *, #211, .F. ) ;
#49 = EDGE_CURVE ( 'NONE', #6, #139, #47, .T. ) ;
#50 = LINE ( 'NONE', #71, #166 ) ;
#51 = COORDINATED_UNIVERSAL_TIME_OFFSET ( 5, 0, .BEHIND. ) ;
#52 = VERTEX_POINT ( 'NONE', #132 ) ;
#53 = AXIS2_PLACEMENT_3D ( 'NONE', #15, #134, #177 ) ;
#54 = VECTOR ( 'NONE', #23, 1000.000000000000000 ) ;
#55 = ADVANCED_FACE ( 'NONE', ( #181 ), #62, .F. ) ;
#56 = UNCERTAINTY_MEASURE_WITH_UNIT (LENGTH_MEASURE( 1.000000000000000100E-005 ), #213, 'distance_accuracy_value', 'NONE');
#57 = ORIENTED_EDGE ( 'NONE', *, *, #164, .T. ) ;
#58 = CARTESIAN_POINT ( 'NONE',  ( 0.0000000000000000000, 0.0000000000000000000, 3.000000000000000000 ) ) ;
#59 = APPROVAL ( #233, 'UNSPECIFIED' ) ;
#60 = COORDINATED_UNIVERSAL_TIME_OFFSET ( 5, 0, .BEHIND. ) ;
#61 = CARTESIAN_POINT ( 'NONE',  ( 50.00000000000000000, 50.00000000000000000, 3.000000000000000000 ) ) ;
#62 = PLANE ( 'NONE',  #185 ) ;
#63 = ORIENTED_EDGE ( 'NONE', *, *, #197, .F. ) ;
#64 = PLANE ( 'NONE',  #95 ) ;
#65 = APPROVAL_STATUS ( 'not_yet_approved' ) ;
#66 = LOCAL_TIME ( 10, 20, 29.00000000000000000, #214 ) ;
#67 = VECTOR ( 'NONE', #210, 1000.000000000000000 ) ;
#68 = EDGE_CURVE ( 'NONE', #235, #139, #237, .T. ) ;
#69 = ORIENTED_EDGE ( 'NONE', *, *, #164, .F. ) ;
#70 = CARTESIAN_POINT ( 'NONE',  ( 50.00000000000000000, 0.0000000000000000000, 3.000000000000000000 ) ) ;
#71 = CARTESIAN_POINT ( 'NONE',  ( 0.0000000000000000000, 0.0000000000000000000, 0.0000000000000000000 ) ) ;
#72 = VERTEX_POINT ( 'NONE', #25 ) ;
#73 = VECTOR ( 'NONE', #109, 1000.000000000000000 ) ;
#74 = ORIENTED_EDGE ( 'NONE', *, *, #98, .T. ) ;
#75 = DATE_AND_TIME ( #205, #66 ) ;
#76 = EDGE_LOOP ( 'NONE', ( #112, #13, #209, #24 ) ) ;
#77 = EDGE_CURVE ( 'NONE', #40, #235, #1, .T. ) ;
#78 = VECTOR ( 'NONE', #135, 1000.000000000000000 ) ;
#79 = ORIENTED_EDGE ( 'NONE', *, *, #77, .F. ) ;
#80 = EDGE_CURVE ( 'NONE', #72, #144, #44, .T. ) ;
#81 = CC_DESIGN_PERSON_AND_ORGANIZATION_ASSIGNMENT ( #89, #110, ( #142 ) ) ;
#82 = CARTESIAN_POINT ( 'NONE',  ( 0.0000000000000000000, 50.00000000000000000, 3.000000000000000000 ) ) ;
#83 = VECTOR ( 'NONE', #131, 1000.000000000000000 ) ;
#84 = EDGE_LOOP ( 'NONE', ( #18, #74, #108, #99 ) ) ;
#85 = DIRECTION ( 'NONE',  ( 0.0000000000000000000, -1.000000000000000000, 0.0000000000000000000 ) ) ;
#86 = AXIS2_PLACEMENT_3D ( 'NONE', #152, #172, #8 ) ;
#87 = LOCAL_TIME ( 10, 20, 29.00000000000000000, #4 ) ;
#88 = LINE ( 'NONE', #70, #78 ) ;
#89 = PERSON_AND_ORGANIZATION ( #94, #208 ) ;
#90 = APPROVAL_STATUS ( 'not_yet_approved' ) ;
#91 = APPROVAL_ROLE ( '' ) ;
#92 = LOCAL_TIME ( 10, 20, 29.00000000000000000, #60 ) ;
#93 = CARTESIAN_POINT ( 'NONE',  ( 50.00000000000000000, 50.00000000000000000, 0.0000000000000000000 ) ) ;
#94 = PERSON ( 'UNSPECIFIED', 'UNSPECIFIED', 'UNSPECIFIED', ('UNSPECIFIED'), ('UNSPECIFIED'), ('UNSPECIFIED') ) ;
#95 = AXIS2_PLACEMENT_3D ( 'NONE', #41, #103, #129 ) ;
#96 = APPLICATION_PROTOCOL_DEFINITION ( 'international standard', 'config_control_design', 1994, #157 ) ;
#97 = DESIGN_CONTEXT ( 'detailed design', #46, 'design' ) ;
#98 = EDGE_CURVE ( 'NONE', #162, #72, #175, .T. ) ;
#99 = ORIENTED_EDGE ( 'NONE', *, *, #111, .T. ) ;
#100 = DATE_AND_TIME ( #187, #158 ) ;
#101 = DIRECTION ( 'NONE',  ( 0.0000000000000000000, 0.0000000000000000000, -1.000000000000000000 ) ) ;
#102 = DIRECTION ( 'NONE',  ( 1.000000000000000000, 0.0000000000000000000, 0.0000000000000000000 ) ) ;
#103 = DIRECTION ( 'NONE',  ( 0.0000000000000000000, 1.000000000000000000, 0.0000000000000000000 ) ) ;
#104 = CARTESIAN_POINT ( 'NONE',  ( 0.0000000000000000000, 50.00000000000000000, 0.0000000000000000000 ) ) ;
#105 = PERSON_AND_ORGANIZATION_ROLE ( 'design_supplier' ) ;
#106 = CC_DESIGN_PERSON_AND_ORGANIZATION_ASSIGNMENT ( #146, #45, ( #117 ) ) ;
#107 =( NAMED_UNIT ( * ) PLANE_ANGLE_UNIT ( ) SI_UNIT ( $, .RADIAN. ) );
#108 = ORIENTED_EDGE ( 'NONE', *, *, #211, .T. ) ;
#109 = DIRECTION ( 'NONE',  ( -0.0000000000000000000, -0.0000000000000000000, -1.000000000000000000 ) ) ;
#110 = PERSON_AND_ORGANIZATION_ROLE ( 'design_owner' ) ;
#111 = EDGE_CURVE ( 'NONE', #40, #6, #9, .T. ) ;
#112 = ORIENTED_EDGE ( 'NONE', *, *, #34, .T. ) ;
#113 = PERSON_AND_ORGANIZATION ( #94, #208 ) ;
#114 = ADVANCED_FACE ( 'NONE', ( #202 ), #64, .F. ) ;
#115 = DATE_AND_TIME ( #5, #165 ) ;
#116 = ORIENTED_EDGE ( 'NONE', *, *, #230, .F. ) ;
#117 = SECURITY_CLASSIFICATION ( '', '', #30 ) ;
#118 = CARTESIAN_POINT ( 'NONE',  ( 50.00000000000000000, 50.00000000000000000, 3.000000000000000000 ) ) ;
#119 = PLANE ( 'NONE',  #236 ) ;
#120 = DIRECTION ( 'NONE',  ( 0.0000000000000000000, 0.0000000000000000000, 1.000000000000000000 ) ) ;
#121 = CARTESIAN_POINT ( 'NONE',  ( 0.0000000000000000000, 0.0000000000000000000, 3.000000000000000000 ) ) ;
#122 = APPROVAL_ROLE ( '' ) ;
#123 = DIRECTION ( 'NONE',  ( -0.0000000000000000000, -1.000000000000000000, -0.0000000000000000000 ) ) ;
#124 = CC_DESIGN_DATE_AND_TIME_ASSIGNMENT ( #115, #174, ( #117 ) ) ;
#125 = EDGE_LOOP ( 'NONE', ( #57, #19, #116, #20 ) ) ;
#126 = PRODUCT_DEFINITION_SHAPE ( 'NONE', 'NONE',  #149 ) ;
#127 = ADVANCED_FACE ( 'NONE', ( #229 ), #150, .F. ) ;
#128 = APPROVAL_DATE_TIME ( #75, #22 ) ;
#129 = DIRECTION ( 'NONE',  ( 0.0000000000000000000, -0.0000000000000000000, 1.000000000000000000 ) ) ;
#130 = ORIENTED_EDGE ( 'NONE', *, *, #197, .T. ) ;
#131 = DIRECTION ( 'NONE',  ( -1.000000000000000000, -0.0000000000000000000, -0.0000000000000000000 ) ) ;
#132 = CARTESIAN_POINT ( 'NONE',  ( 0.0000000000000000000, 0.0000000000000000000, 0.0000000000000000000 ) ) ;
#133 = PLANE ( 'NONE',  #179 ) ;
#134 = DIRECTION ( 'NONE',  ( 0.0000000000000000000, 0.0000000000000000000, -1.000000000000000000 ) ) ;
#135 = DIRECTION ( 'NONE',  ( 0.0000000000000000000, 1.000000000000000000, 0.0000000000000000000 ) ) ;
#136 = APPROVAL_PERSON_ORGANIZATION ( #113, #59, #122 ) ;
#137 = CC_DESIGN_APPROVAL ( #161, ( #117 ) ) ;
#138 = APPROVAL_ROLE ( '' ) ;
#139 = VERTEX_POINT ( 'NONE', #227 ) ;
#140 = PERSON_AND_ORGANIZATION_ROLE ( 'creator' ) ;
#141 = PERSON_AND_ORGANIZATION ( #94, #208 ) ;
#142 = PRODUCT ( 'Web Model 47243', 'Web Model 47243', '', ( #28 ) ) ;
#143 = VECTOR ( 'NONE', #11, 1000.000000000000000 ) ;
#144 = VERTEX_POINT ( 'NONE', #228 ) ;
#145 =( GEOMETRIC_REPRESENTATION_CONTEXT ( 3 ) GLOBAL_UNCERTAINTY_ASSIGNED_CONTEXT ( ( #56 ) ) GLOBAL_UNIT_ASSIGNED_CONTEXT ( ( #213, #107, #199 ) ) REPRESENTATION_CONTEXT ( 'NONE', 'WORKASPACE' ) );
#146 = PERSON_AND_ORGANIZATION ( #94, #208 ) ;
#147 = FACE_OUTER_BOUND ( 'NONE', #84, .T. ) ;
#148 = ADVANCED_FACE ( 'NONE', ( #37 ), #119, .T. ) ;
#149 = PRODUCT_DEFINITION ( 'UNKNOWN', '', #2, #97 ) ;
#150 = PLANE ( 'NONE',  #86 ) ;
#151 = CARTESIAN_POINT ( 'NONE',  ( 0.0000000000000000000, 50.00000000000000000, 3.000000000000000000 ) ) ;
#152 = CARTESIAN_POINT ( 'NONE',  ( 50.00000000000000000, 0.0000000000000000000, 3.000000000000000000 ) ) ;
#153 = CARTESIAN_POINT ( 'NONE',  ( 0.0000000000000000000, 50.00000000000000000, 3.000000000000000000 ) ) ;
#154 = CARTESIAN_POINT ( 'NONE',  ( 0.0000000000000000000, 0.0000000000000000000, 0.0000000000000000000 ) ) ;
#155 = ORIENTED_EDGE ( 'NONE', *, *, #77, .T. ) ;
#156 = DIRECTION ( 'NONE',  ( 1.000000000000000000, 0.0000000000000000000, 0.0000000000000000000 ) ) ;
#157 = APPLICATION_CONTEXT ( 'configuration controlled 3d designs of mechanical parts and assemblies' ) ;
#158 = LOCAL_TIME ( 10, 20, 29.00000000000000000, #159 ) ;
#159 = COORDINATED_UNIVERSAL_TIME_OFFSET ( 5, 0, .BEHIND. ) ;
#160 = LINE ( 'NONE', #207, #222 ) ;
#161 = APPROVAL ( #65, 'UNSPECIFIED' ) ;
#162 = VERTEX_POINT ( 'NONE', #58 ) ;
#163 = ADVANCED_FACE ( 'NONE', ( #234 ), #133, .F. ) ;
#164 = EDGE_CURVE ( 'NONE', #139, #52, #50, .T. ) ;
#165 = LOCAL_TIME ( 10, 20, 29.00000000000000000, #51 ) ;
#166 = VECTOR ( 'NONE', #29, 1000.000000000000000 ) ;
#167 = EDGE_LOOP ( 'NONE', ( #36, #206, #184, #155 ) ) ;
#168 = ADVANCED_BREP_SHAPE_REPRESENTATION ( 'Web Model 47243', ( #21, #217 ), #145 ) ;
#169 = CARTESIAN_POINT ( 'NONE',  ( 0.0000000000000000000, 0.0000000000000000000, 3.000000000000000000 ) ) ;
#170 = DIRECTION ( 'NONE',  ( -1.000000000000000000, 0.0000000000000000000, -0.0000000000000000000 ) ) ;
#171 = CARTESIAN_POINT ( 'NONE',  ( 50.00000000000000000, 0.0000000000000000000, 3.000000000000000000 ) ) ;
#172 = DIRECTION ( 'NONE',  ( -1.000000000000000000, 0.0000000000000000000, 0.0000000000000000000 ) ) ;
#173 = CARTESIAN_POINT ( 'NONE',  ( 0.0000000000000000000, 50.00000000000000000, 3.000000000000000000 ) ) ;
#174 = DATE_TIME_ROLE ( 'classification_date' ) ;
#175 = LINE ( 'NONE', #226, #32 ) ;
#176 = ORIENTED_EDGE ( 'NONE', *, *, #34, .F. ) ;
#177 = DIRECTION ( 'NONE',  ( -1.000000000000000000, 0.0000000000000000000, -0.0000000000000000000 ) ) ;
#178 = CC_DESIGN_DATE_AND_TIME_ASSIGNMENT ( #100, #198, ( #149 ) ) ;
#179 = AXIS2_PLACEMENT_3D ( 'NONE', #169, #189, #101 ) ;
#180 = CARTESIAN_POINT ( 'NONE',  ( 50.00000000000000000, 0.0000000000000000000, 0.0000000000000000000 ) ) ;
#181 = FACE_OUTER_BOUND ( 'NONE', #167, .T. ) ;
#182 = LINE ( 'NONE', #180, #143 ) ;
#183 = APPROVAL_DATE_TIME ( #193, #161 ) ;
#184 = ORIENTED_EDGE ( 'NONE', *, *, #111, .F. ) ;
#185 = AXIS2_PLACEMENT_3D ( 'NONE', #82, #85, #190 ) ;
#186 = ADVANCED_FACE ( 'NONE', ( #147 ), #7, .F. ) ;
#187 = CALENDAR_DATE ( 2017, 31, 1 ) ;
#188 = CC_DESIGN_PERSON_AND_ORGANIZATION_ASSIGNMENT ( #141, #140, ( #2 ) ) ;
#189 = DIRECTION ( 'NONE',  ( 1.000000000000000000, 0.0000000000000000000, 0.0000000000000000000 ) ) ;
#190 = DIRECTION ( 'NONE',  ( 0.0000000000000000000, -0.0000000000000000000, -1.000000000000000000 ) ) ;
#191 = DIRECTION ( 'NONE',  ( 1.000000000000000000, 0.0000000000000000000, 0.0000000000000000000 ) ) ;
#192 = APPROVAL_DATE_TIME ( #31, #59 ) ;
#193 = DATE_AND_TIME ( #221, #87 ) ;
#194 = DIRECTION ( 'NONE',  ( -1.000000000000000000, -0.0000000000000000000, -0.0000000000000000000 ) ) ;
#195 = PERSON_AND_ORGANIZATION ( #94, #208 ) ;
#196 = PERSON_AND_ORGANIZATION_ROLE ( 'creator' ) ;
#197 = EDGE_CURVE ( 'NONE', #144, #235, #182, .T. ) ;
#198 = DATE_TIME_ROLE ( 'creation_date' ) ;
#199 =( NAMED_UNIT ( * ) SI_UNIT ( $, .STERADIAN. ) SOLID_ANGLE_UNIT ( ) );
#200 = CARTESIAN_POINT ( 'NONE',  ( 0.0000000000000000000, 0.0000000000000000000, 3.000000000000000000 ) ) ;
#201 = PERSON_AND_ORGANIZATION ( #94, #208 ) ;
#202 = FACE_OUTER_BOUND ( 'NONE', #76, .T. ) ;
#203 = CC_DESIGN_PERSON_AND_ORGANIZATION_ASSIGNMENT ( #16, #196, ( #149 ) ) ;
#204 = CALENDAR_DATE ( 2017, 31, 1 ) ;
#205 = CALENDAR_DATE ( 2017, 31, 1 ) ;
#206 = ORIENTED_EDGE ( 'NONE', *, *, #49, .F. ) ;
#207 = CARTESIAN_POINT ( 'NONE',  ( 0.0000000000000000000, 0.0000000000000000000, 0.0000000000000000000 ) ) ;
#208 = ORGANIZATION ( 'UNSPECIFIED', 'UNSPECIFIED', '' ) ;
#209 = ORIENTED_EDGE ( 'NONE', *, *, #98, .F. ) ;
#210 = DIRECTION ( 'NONE',  ( -0.0000000000000000000, -0.0000000000000000000, -1.000000000000000000 ) ) ;
#211 = EDGE_CURVE ( 'NONE', #72, #40, #88, .T. ) ;
#212 = EDGE_CURVE ( 'NONE', #162, #52, #215, .T. ) ;
#213 =( LENGTH_UNIT ( ) NAMED_UNIT ( * ) SI_UNIT ( .MILLI., .METRE. ) );
#214 = COORDINATED_UNIVERSAL_TIME_OFFSET ( 5, 0, .BEHIND. ) ;
#215 = LINE ( 'NONE', #121, #73 ) ;
#216 = CC_DESIGN_SECURITY_CLASSIFICATION ( #117, ( #2 ) ) ;
#217 = AXIS2_PLACEMENT_3D ( 'NONE', #154, #120, #156 ) ;
#218 = VECTOR ( 'NONE', #123, 1000.000000000000000 ) ;
#219 = ORIENTED_EDGE ( 'NONE', *, *, #80, .T. ) ;
#220 = APPROVAL_PERSON_ORGANIZATION ( #195, #22, #91 ) ;
#221 = CALENDAR_DATE ( 2017, 31, 1 ) ;
#222 = VECTOR ( 'NONE', #102, 1000.000000000000000 ) ;
#223 = CC_DESIGN_APPROVAL ( #59, ( #2 ) ) ;
#224 = CARTESIAN_POINT ( 'NONE',  ( 0.0000000000000000000, 50.00000000000000000, 0.0000000000000000000 ) ) ;
#225 = CLOSED_SHELL ( 'NONE', ( #163, #114, #127, #55, #186, #148 ) ) ;
#226 = CARTESIAN_POINT ( 'NONE',  ( 0.0000000000000000000, 0.0000000000000000000, 3.000000000000000000 ) ) ;
#227 = CARTESIAN_POINT ( 'NONE',  ( 0.0000000000000000000, 50.00000000000000000, 0.0000000000000000000 ) ) ;
#228 = CARTESIAN_POINT ( 'NONE',  ( 50.00000000000000000, 0.0000000000000000000, 0.0000000000000000000 ) ) ;
#229 = FACE_OUTER_BOUND ( 'NONE', #26, .T. ) ;
#230 = EDGE_CURVE ( 'NONE', #6, #162, #17, .T. ) ;
#231 = PRODUCT_RELATED_PRODUCT_CATEGORY ( 'detail', '', ( #142 ) ) ;
#232 = APPLICATION_PROTOCOL_DEFINITION ( 'international standard', 'config_control_design', 1994, #46 ) ;
#233 = APPROVAL_STATUS ( 'not_yet_approved' ) ;
#234 = FACE_OUTER_BOUND ( 'NONE', #125, .T. ) ;
#235 = VERTEX_POINT ( 'NONE', #93 ) ;
#236 = AXIS2_PLACEMENT_3D ( 'NONE', #104, #10, #170 ) ;
#237 = LINE ( 'NONE', #224, #83 ) ;
ENDSEC;
END-ISO-10303-21;
