ISO-10303-21;
HEADER;
FILE_DESCRIPTION (( 'STEP AP203' ),
    '1' );
FILE_NAME ('5450-E0W.STEP',
    '2015-02-24T16:46:44',
    ( 'Admin' ),
    ( '' ),
    'SwSTEP 2.0',
    'SolidWorks 2014',
    '' );
FILE_SCHEMA (( 'CONFIG_CONTROL_DESIGN' ));
ENDSEC;

DATA;
#1 = CARTESIAN_POINT ( 'NONE',  ( 2.999999999999999600, 0.0000000000000000000, 9.017153270429325600 ) ) ;
#2 = APPROVAL_DATE_TIME ( #73, #201 ) ;
#3 = ORIENTED_EDGE ( 'NONE', *, *, #119, .F. ) ;
#4 = VERTEX_POINT ( 'NONE', #138 ) ;
#5 = EDGE_CURVE ( 'NONE', #12, #72, #121, .T. ) ;
#6 = CIRCLE ( 'NONE', #79, 2.999999999999999100 ) ;
#7 = FACE_OUTER_BOUND ( 'NONE', #32, .T. ) ;
#8 = LOCAL_TIME ( 11, 46, 44.00000000000000000, #153 ) ;
#9 = CARTESIAN_POINT ( 'NONE',  ( 0.0000000000000000000, 0.0000000000000000000, 9.017153270429325600 ) ) ;
#10 = ORIENTED_EDGE ( 'NONE', *, *, #197, .F. ) ;
#11 = CARTESIAN_POINT ( 'NONE',  ( 0.0000000000000000000, 0.0000000000000000000, 1.841047639322366000 ) ) ;
#12 = VERTEX_POINT ( 'NONE', #132 ) ;
#13 = AXIS2_PLACEMENT_3D ( 'NONE', #49, #217, #214 ) ;
#14 = AXIS2_PLACEMENT_3D ( 'NONE', #41, #88, #198 ) ;
#15 = ORIENTED_EDGE ( 'NONE', *, *, #20, .F. ) ;
#16 =( GEOMETRIC_REPRESENTATION_CONTEXT ( 3 ) GLOBAL_UNCERTAINTY_ASSIGNED_CONTEXT ( ( #169 ) ) GLOBAL_UNIT_ASSIGNED_CONTEXT ( ( #162, #154, #149 ) ) REPRESENTATION_CONTEXT ( 'NONE', 'WORKASPACE' ) );
#17 = DIRECTION ( 'NONE',  ( -0.0000000000000000000, -0.0000000000000000000, 1.000000000000000000 ) ) ;
#18 = AXIS2_PLACEMENT_3D ( 'NONE', #109, #38, #62 ) ;
#19 = ORIENTED_EDGE ( 'NONE', *, *, #139, .T. ) ;
#20 = EDGE_CURVE ( 'NONE', #114, #209, #199, .T. ) ;
#21 = CARTESIAN_POINT ( 'NONE',  ( -3.673940397442058400E-016, -2.999999999999999100, 1.841047639322366300 ) ) ;
#22 = EDGE_CURVE ( 'NONE', #4, #61, #158, .T. ) ;
#23 = APPROVAL ( #31, 'UNSPECIFIED' ) ;
#24 = LOCAL_TIME ( 11, 46, 44.00000000000000000, #202 ) ;
#25 = ORIENTED_EDGE ( 'NONE', *, *, #5, .T. ) ;
#26 = APPLICATION_CONTEXT ( 'configuration controlled 3d designs of mechanical parts and assemblies' ) ;
#27 = CARTESIAN_POINT ( 'NONE',  ( 0.0000000000000000000, 0.0000000000000000000, 9.017153270429325600 ) ) ;
#28 = ORIENTED_EDGE ( 'NONE', *, *, #22, .F. ) ;
#29 = DIRECTION ( 'NONE',  ( 0.0000000000000000000, 1.000000000000000000, 0.0000000000000000000 ) ) ;
#30 = PERSON_AND_ORGANIZATION_ROLE ( 'creator' ) ;
#31 = APPROVAL_STATUS ( 'not_yet_approved' ) ;
#32 = EDGE_LOOP ( 'NONE', ( #3, #118, #174, #151 ) ) ;
#33 = EDGE_CURVE ( 'NONE', #61, #206, #6, .T. ) ;
#34 = CARTESIAN_POINT ( 'NONE',  ( 0.0000000000000000000, 0.0000000000000000000, 1.841047639322366000 ) ) ;
#35 = PRODUCT_DEFINITION_SHAPE ( 'NONE', 'NONE',  #211 ) ;
#36 = CC_DESIGN_PERSON_AND_ORGANIZATION_ASSIGNMENT ( #205, #103, ( #143 ) ) ;
#37 = ORGANIZATION ( 'UNSPECIFIED', 'UNSPECIFIED', '' ) ;
#38 = DIRECTION ( 'NONE',  ( -1.000000000000000000, 1.224646799147353200E-016, 0.0000000000000000000 ) ) ;
#39 = APPROVAL_PERSON_ORGANIZATION ( #96, #23, #195 ) ;
#40 = PLANE ( 'NONE',  #171 ) ;
#41 = CARTESIAN_POINT ( 'NONE',  ( 0.0000000000000000000, 0.0000000000000000000, 0.0000000000000000000 ) ) ;
#42 = DIRECTION ( 'NONE',  ( 1.000000000000000000, 0.0000000000000000000, 0.0000000000000000000 ) ) ;
#43 = DIRECTION ( 'NONE',  ( 1.000000000000000000, 0.0000000000000000000, 0.0000000000000000000 ) ) ;
#44 = COORDINATED_UNIVERSAL_TIME_OFFSET ( 5, 0, .BEHIND. ) ;
#45 = FACE_OUTER_BOUND ( 'NONE', #127, .T. ) ;
#46 = DATE_TIME_ROLE ( 'classification_date' ) ;
#47 = DIRECTION ( 'NONE',  ( 0.0000000000000000000, -0.0000000000000000000, 1.000000000000000000 ) ) ;
#48 = ORIENTED_EDGE ( 'NONE', *, *, #210, .F. ) ;
#49 = CARTESIAN_POINT ( 'NONE',  ( 0.0000000000000000000, 0.0000000000000000000, 1.841047639322366000 ) ) ;
#50 = ADVANCED_FACE ( 'NONE', ( #45 ), #74, .T. ) ;
#51 = LOCAL_TIME ( 11, 46, 44.00000000000000000, #44 ) ;
#52 = CALENDAR_DATE ( 2015, 24, 2 ) ;
#53 = PRODUCT_RELATED_PRODUCT_CATEGORY ( 'detail', '', ( #150 ) ) ;
#54 = AXIS2_PLACEMENT_3D ( 'NONE', #185, #82, #155 ) ;
#55 = DIRECTION ( 'NONE',  ( -1.000000000000000000, 0.0000000000000000000, 0.0000000000000000000 ) ) ;
#56 = ORIENTED_EDGE ( 'NONE', *, *, #210, .T. ) ;
#57 = ADVANCED_BREP_SHAPE_REPRESENTATION ( '5450-E0W', ( #92, #14 ), #16 ) ;
#58 = ORIENTED_EDGE ( 'NONE', *, *, #119, .T. ) ;
#59 = APPROVAL_STATUS ( 'not_yet_approved' ) ;
#60 = CC_DESIGN_APPROVAL ( #23, ( #211 ) ) ;
#61 = VERTEX_POINT ( 'NONE', #93 ) ;
#62 = DIRECTION ( 'NONE',  ( -1.224646799147353000E-016, -1.000000000000000000, 0.0000000000000000000 ) ) ;
#63 = DIRECTION ( 'NONE',  ( 0.0000000000000000000, 0.0000000000000000000, -1.000000000000000000 ) ) ;
#64 = PERSON_AND_ORGANIZATION_ROLE ( 'design_owner' ) ;
#65 = ORIENTED_EDGE ( 'NONE', *, *, #84, .T. ) ;
#66 = DATE_AND_TIME ( #52, #51 ) ;
#67 = EDGE_CURVE ( 'NONE', #209, #4, #68, .T. ) ;
#68 = CIRCLE ( 'NONE', #111, 2.999999999999999100 ) ;
#69 = DIRECTION ( 'NONE',  ( -1.000000000000000000, 0.0000000000000000000, 0.0000000000000000000 ) ) ;
#70 = CC_DESIGN_PERSON_AND_ORGANIZATION_ASSIGNMENT ( #216, #110, ( #143 ) ) ;
#71 = CARTESIAN_POINT ( 'NONE',  ( 0.0000000000000000000, 0.0000000000000000000, 5.419999999999999000 ) ) ;
#72 = VERTEX_POINT ( 'NONE', #98 ) ;
#73 = DATE_AND_TIME ( #161, #8 ) ;
#74 = CYLINDRICAL_SURFACE ( 'NONE', #112, 2.999999999999999600 ) ;
#75 = APPROVAL_STATUS ( 'not_yet_approved' ) ;
#76 = PERSON_AND_ORGANIZATION ( #108, #37 ) ;
#77 = DATE_AND_TIME ( #134, #122 ) ;
#78 = EDGE_LOOP ( 'NONE', ( #15, #58, #100, #65 ) ) ;
#79 = AXIS2_PLACEMENT_3D ( 'NONE', #34, #145, #43 ) ;
#80 = APPROVAL_DATE_TIME ( #66, #23 ) ;
#81 = CARTESIAN_POINT ( 'NONE',  ( -2.999999999999999600, 3.673940397442059400E-016, 9.017153270429325600 ) ) ;
#82 = DIRECTION ( 'NONE',  ( -0.0000000000000000000, -0.0000000000000000000, 1.000000000000000000 ) ) ;
#83 = ADVANCED_FACE ( 'NONE', ( #94 ), #117, .T. ) ;
#84 = EDGE_CURVE ( 'NONE', #206, #209, #101, .T. ) ;
#85 = CC_DESIGN_PERSON_AND_ORGANIZATION_ASSIGNMENT ( #142, #30, ( #211 ) ) ;
#86 = CARTESIAN_POINT ( 'NONE',  ( -2.999999999999999100, 3.673940397442059400E-016, 1.841047639322366000 ) ) ;
#87 = DIRECTION ( 'NONE',  ( 1.000000000000000000, 0.0000000000000000000, 0.0000000000000000000 ) ) ;
#88 = DIRECTION ( 'NONE',  ( 0.0000000000000000000, 0.0000000000000000000, 1.000000000000000000 ) ) ;
#89 = ORIENTED_EDGE ( 'NONE', *, *, #84, .F. ) ;
#90 = LINE ( 'NONE', #81, #218 ) ;
#91 = EDGE_LOOP ( 'NONE', ( #10, #95 ) ) ;
#92 = MANIFOLD_SOLID_BREP ( '5450-001-1-solid1', #194 ) ;
#93 = CARTESIAN_POINT ( 'NONE',  ( 0.0000000000000000000, 2.999999999999999100, 1.841047639322366300 ) ) ;
#94 = FACE_OUTER_BOUND ( 'NONE', #116, .T. ) ;
#95 = ORIENTED_EDGE ( 'NONE', *, *, #5, .F. ) ;
#96 = PERSON_AND_ORGANIZATION ( #108, #37 ) ;
#97 = ORIENTED_EDGE ( 'NONE', *, *, #33, .F. ) ;
#98 = CARTESIAN_POINT ( 'NONE',  ( 3.000000000000000000, 0.0000000000000000000, -0.7500000000000006700 ) ) ;
#99 = APPROVAL_DATE_TIME ( #130, #212 ) ;
#100 = ORIENTED_EDGE ( 'NONE', *, *, #33, .T. ) ;
#101 = CIRCLE ( 'NONE', #13, 2.999999999999999100 ) ;
#102 = ADVANCED_FACE ( 'NONE', ( #7 ), #133, .F. ) ;
#103 = PERSON_AND_ORGANIZATION_ROLE ( 'creator' ) ;
#104 = CARTESIAN_POINT ( 'NONE',  ( 0.0000000000000000000, 0.0000000000000000000, 5.419999999999999000 ) ) ;
#105 = CIRCLE ( 'NONE', #159, 4.669999999999999900 ) ;
#106 = CC_DESIGN_PERSON_AND_ORGANIZATION_ASSIGNMENT ( #107, #183, ( #172 ) ) ;
#107 = PERSON_AND_ORGANIZATION ( #108, #37 ) ;
#108 = PERSON ( 'UNSPECIFIED', 'UNSPECIFIED', 'UNSPECIFIED', ('UNSPECIFIED'), ('UNSPECIFIED'), ('UNSPECIFIED') ) ;
#109 = CARTESIAN_POINT ( 'NONE',  ( 0.0000000000000000000, 0.0000000000000000000, 5.419999999999999000 ) ) ;
#110 = PERSON_AND_ORGANIZATION_ROLE ( 'design_supplier' ) ;
#111 = AXIS2_PLACEMENT_3D ( 'NONE', #11, #124, #173 ) ;
#112 = AXIS2_PLACEMENT_3D ( 'NONE', #27, #17, #87 ) ;
#113 = DIRECTION ( 'NONE',  ( -0.0000000000000000000, -0.0000000000000000000, 1.000000000000000000 ) ) ;
#114 = VERTEX_POINT ( 'NONE', #135 ) ;
#115 = DIRECTION ( 'NONE',  ( 1.000000000000000000, 0.0000000000000000000, 0.0000000000000000000 ) ) ;
#116 = EDGE_LOOP ( 'NONE', ( #48, #25, #19, #203, #89 ) ) ;
#117 = CYLINDRICAL_SURFACE ( 'NONE', #120, 2.999999999999999600 ) ;
#118 = ORIENTED_EDGE ( 'NONE', *, *, #20, .T. ) ;
#119 = EDGE_CURVE ( 'NONE', #114, #61, #105, .T. ) ;
#120 = AXIS2_PLACEMENT_3D ( 'NONE', #9, #113, #115 ) ;
#121 = CIRCLE ( 'NONE', #54, 3.000000000000000000 ) ;
#122 = LOCAL_TIME ( 11, 46, 44.00000000000000000, #129 ) ;
#123 = APPROVAL_ROLE ( '' ) ;
#124 = DIRECTION ( 'NONE',  ( -0.0000000000000000000, -0.0000000000000000000, 1.000000000000000000 ) ) ;
#125 = APPLICATION_PROTOCOL_DEFINITION ( 'international standard', 'config_control_design', 1994, #26 ) ;
#126 = DESIGN_CONTEXT ( 'detailed design', #26, 'design' ) ;
#127 = EDGE_LOOP ( 'NONE', ( #190, #56, #97, #28, #164 ) ) ;
#128 = AXIS2_PLACEMENT_3D ( 'NONE', #104, #69, #147 ) ;
#129 = COORDINATED_UNIVERSAL_TIME_OFFSET ( 5, 0, .BEHIND. ) ;
#130 = DATE_AND_TIME ( #204, #24 ) ;
#131 = PERSON_AND_ORGANIZATION ( #108, #37 ) ;
#132 = CARTESIAN_POINT ( 'NONE',  ( -3.000000000000000400, 3.673940397442060400E-016, -0.7500000000000006700 ) ) ;
#133 = SPHERICAL_SURFACE ( 'NONE', #128, 4.669999999999999900 ) ;
#134 = CALENDAR_DATE ( 2015, 24, 2 ) ;
#135 = CARTESIAN_POINT ( 'NONE',  ( 0.0000000000000000000, 2.859550276009069200E-016, 0.7499999999999997800 ) ) ;
#136 = MECHANICAL_CONTEXT ( 'NONE', #215, 'mechanical' ) ;
#137 = PERSON_AND_ORGANIZATION ( #108, #37 ) ;
#138 = CARTESIAN_POINT ( 'NONE',  ( 2.999999999999999100, 0.0000000000000000000, 1.841047639322366000 ) ) ;
#139 = EDGE_CURVE ( 'NONE', #72, #4, #163, .T. ) ;
#140 = FACE_OUTER_BOUND ( 'NONE', #78, .T. ) ;
#141 = CC_DESIGN_PERSON_AND_ORGANIZATION_ASSIGNMENT ( #76, #64, ( #150 ) ) ;
#142 = PERSON_AND_ORGANIZATION ( #108, #37 ) ;
#143 = PRODUCT_DEFINITION_FORMATION_WITH_SPECIFIED_SOURCE ( 'ANY', '', #150, .NOT_KNOWN. ) ;
#144 = LOCAL_TIME ( 11, 46, 44.00000000000000000, #182 ) ;
#145 = DIRECTION ( 'NONE',  ( -0.0000000000000000000, -0.0000000000000000000, 1.000000000000000000 ) ) ;
#146 = APPROVAL_PERSON_ORGANIZATION ( #137, #201, #156 ) ;
#147 = DIRECTION ( 'NONE',  ( 0.0000000000000000000, 1.000000000000000000, 0.0000000000000000000 ) ) ;
#148 = DATE_AND_TIME ( #188, #144 ) ;
#149 =( NAMED_UNIT ( * ) SI_UNIT ( $, .STERADIAN. ) SOLID_ANGLE_UNIT ( ) );
#150 = PRODUCT ( '5450-E0W', '5450-E0W', '', ( #136 ) ) ;
#151 = ORIENTED_EDGE ( 'NONE', *, *, #22, .T. ) ;
#152 = FACE_OUTER_BOUND ( 'NONE', #91, .T. ) ;
#153 = COORDINATED_UNIVERSAL_TIME_OFFSET ( 5, 0, .BEHIND. ) ;
#154 =( NAMED_UNIT ( * ) PLANE_ANGLE_UNIT ( ) SI_UNIT ( $, .RADIAN. ) );
#155 = DIRECTION ( 'NONE',  ( 1.000000000000000000, 0.0000000000000000000, 0.0000000000000000000 ) ) ;
#156 = APPROVAL_ROLE ( '' ) ;
#157 = ADVANCED_FACE ( 'NONE', ( #152 ), #40, .F. ) ;
#158 = CIRCLE ( 'NONE', #192, 2.999999999999999100 ) ;
#159 = AXIS2_PLACEMENT_3D ( 'NONE', #166, #219, #63 ) ;
#160 = CC_DESIGN_DATE_AND_TIME_ASSIGNMENT ( #77, #175, ( #211 ) ) ;
#161 = CALENDAR_DATE ( 2015, 24, 2 ) ;
#162 =( LENGTH_UNIT ( ) NAMED_UNIT ( * ) SI_UNIT ( .MILLI., .METRE. ) );
#163 = LINE ( 'NONE', #1, #178 ) ;
#164 = ORIENTED_EDGE ( 'NONE', *, *, #139, .F. ) ;
#165 = DIRECTION ( 'NONE',  ( -0.0000000000000000000, -0.0000000000000000000, 1.000000000000000000 ) ) ;
#166 = CARTESIAN_POINT ( 'NONE',  ( 0.0000000000000000000, 0.0000000000000000000, 5.419999999999999000 ) ) ;
#167 = CC_DESIGN_APPROVAL ( #201, ( #143 ) ) ;
#168 = SHAPE_DEFINITION_REPRESENTATION ( #35, #57 ) ;
#169 = UNCERTAINTY_MEASURE_WITH_UNIT (LENGTH_MEASURE( 1.000000000000000100E-005 ), #162, 'distance_accuracy_value', 'NONE');
#170 = APPLICATION_PROTOCOL_DEFINITION ( 'international standard', 'config_control_design', 1994, #215 ) ;
#171 = AXIS2_PLACEMENT_3D ( 'NONE', #177, #47, #187 ) ;
#172 = SECURITY_CLASSIFICATION ( '', '', #181 ) ;
#173 = DIRECTION ( 'NONE',  ( 1.000000000000000000, 0.0000000000000000000, 0.0000000000000000000 ) ) ;
#174 = ORIENTED_EDGE ( 'NONE', *, *, #67, .T. ) ;
#175 = DATE_TIME_ROLE ( 'creation_date' ) ;
#176 = ADVANCED_FACE ( 'NONE', ( #140 ), #191, .F. ) ;
#177 = CARTESIAN_POINT ( 'NONE',  ( 0.0000000000000000000, 2.755455298081544300E-016, -0.7500000000000000000 ) ) ;
#178 = VECTOR ( 'NONE', #207, 1000.000000000000000 ) ;
#179 = CIRCLE ( 'NONE', #200, 3.000000000000000000 ) ;
#180 = CC_DESIGN_DATE_AND_TIME_ASSIGNMENT ( #148, #46, ( #172 ) ) ;
#181 = SECURITY_CLASSIFICATION_LEVEL ( 'unclassified' ) ;
#182 = COORDINATED_UNIVERSAL_TIME_OFFSET ( 5, 0, .BEHIND. ) ;
#183 = PERSON_AND_ORGANIZATION_ROLE ( 'classification_officer' ) ;
#184 = DIRECTION ( 'NONE',  ( -0.0000000000000000000, -0.0000000000000000000, 1.000000000000000000 ) ) ;
#185 = CARTESIAN_POINT ( 'NONE',  ( 0.0000000000000000000, 0.0000000000000000000, -0.7500000000000006700 ) ) ;
#186 = AXIS2_PLACEMENT_3D ( 'NONE', #71, #55, #29 ) ;
#187 = DIRECTION ( 'NONE',  ( 1.000000000000000000, 0.0000000000000000000, 0.0000000000000000000 ) ) ;
#188 = CALENDAR_DATE ( 2015, 24, 2 ) ;
#189 = DIRECTION ( 'NONE',  ( -0.0000000000000000000, -0.0000000000000000000, 1.000000000000000000 ) ) ;
#190 = ORIENTED_EDGE ( 'NONE', *, *, #197, .T. ) ;
#191 = SPHERICAL_SURFACE ( 'NONE', #186, 4.669999999999999900 ) ;
#192 = AXIS2_PLACEMENT_3D ( 'NONE', #220, #165, #42 ) ;
#193 = APPROVAL_PERSON_ORGANIZATION ( #131, #212, #123 ) ;
#194 = CLOSED_SHELL ( 'NONE', ( #50, #102, #176, #157, #83 ) ) ;
#195 = APPROVAL_ROLE ( '' ) ;
#196 = CARTESIAN_POINT ( 'NONE',  ( 0.0000000000000000000, 0.0000000000000000000, -0.7500000000000006700 ) ) ;
#197 = EDGE_CURVE ( 'NONE', #72, #12, #179, .T. ) ;
#198 = DIRECTION ( 'NONE',  ( 1.000000000000000000, 0.0000000000000000000, 0.0000000000000000000 ) ) ;
#199 = CIRCLE ( 'NONE', #18, 4.669999999999999900 ) ;
#200 = AXIS2_PLACEMENT_3D ( 'NONE', #196, #189, #221 ) ;
#201 = APPROVAL ( #59, 'UNSPECIFIED' ) ;
#202 = COORDINATED_UNIVERSAL_TIME_OFFSET ( 5, 0, .BEHIND. ) ;
#203 = ORIENTED_EDGE ( 'NONE', *, *, #67, .F. ) ;
#204 = CALENDAR_DATE ( 2015, 24, 2 ) ;
#205 = PERSON_AND_ORGANIZATION ( #108, #37 ) ;
#206 = VERTEX_POINT ( 'NONE', #86 ) ;
#207 = DIRECTION ( 'NONE',  ( -0.0000000000000000000, -0.0000000000000000000, 1.000000000000000000 ) ) ;
#208 = CC_DESIGN_APPROVAL ( #212, ( #172 ) ) ;
#209 = VERTEX_POINT ( 'NONE', #21 ) ;
#210 = EDGE_CURVE ( 'NONE', #12, #206, #90, .T. ) ;
#211 = PRODUCT_DEFINITION ( 'UNKNOWN', '', #143, #126 ) ;
#212 = APPROVAL ( #75, 'UNSPECIFIED' ) ;
#213 = CC_DESIGN_SECURITY_CLASSIFICATION ( #172, ( #143 ) ) ;
#214 = DIRECTION ( 'NONE',  ( 1.000000000000000000, 0.0000000000000000000, 0.0000000000000000000 ) ) ;
#215 = APPLICATION_CONTEXT ( 'configuration controlled 3d designs of mechanical parts and assemblies' ) ;
#216 = PERSON_AND_ORGANIZATION ( #108, #37 ) ;
#217 = DIRECTION ( 'NONE',  ( -0.0000000000000000000, -0.0000000000000000000, 1.000000000000000000 ) ) ;
#218 = VECTOR ( 'NONE', #184, 1000.000000000000000 ) ;
#219 = DIRECTION ( 'NONE',  ( 1.000000000000000000, 0.0000000000000000000, 0.0000000000000000000 ) ) ;
#220 = CARTESIAN_POINT ( 'NONE',  ( 0.0000000000000000000, 0.0000000000000000000, 1.841047639322366000 ) ) ;
#221 = DIRECTION ( 'NONE',  ( 1.000000000000000000, 0.0000000000000000000, 0.0000000000000000000 ) ) ;
ENDSEC;
END-ISO-10303-21;
