ISO-10303-21;
HEADER;
FILE_DESCRIPTION (( 'STEP AP203' ),
    '1' );
FILE_NAME ('Web Model 47776_47778.step',
    '2017-04-26T16:25:33',
    ( '' ),
    ( '' ),
    'SwSTEP 2.0',
    'SolidWorks 2016',
    '' );
FILE_SCHEMA (( 'CONFIG_CONTROL_DESIGN' ));
ENDSEC;

DATA;
#1 = DIRECTION ( 'NONE',  ( -0.0000000000000000000, 0.0000000000000000000, 1.000000000000000000 ) ) ;
#2 = CARTESIAN_POINT ( 'NONE',  ( 0.0000000000000000000, 0.0000000000000000000, 2.500000000000000000 ) ) ;
#3 = VERTEX_POINT ( 'NONE', #122 ) ;
#4 = DATE_AND_TIME ( #173, #273 ) ;
#5 = ORIENTED_EDGE ( 'NONE', *, *, #184, .F. ) ;
#6 = LINE ( 'NONE', #219, #143 ) ;
#7 = DIRECTION ( 'NONE',  ( 0.0000000000000000000, 1.000000000000000000, -0.0000000000000000000 ) ) ;
#8 = DIRECTION ( 'NONE',  ( -0.0000000000000000000, -0.0000000000000000000, -1.000000000000000000 ) ) ;
#9 = EDGE_LOOP ( 'NONE', ( #52, #5, #108, #46 ) ) ;
#10 = CC_DESIGN_PERSON_AND_ORGANIZATION_ASSIGNMENT ( #274, #104, ( #151 ) ) ;
#11 = CARTESIAN_POINT ( 'NONE',  ( 0.0000000000000000000, 2.500000000000000400, 2.500000000000000000 ) ) ;
#12 = CARTESIAN_POINT ( 'NONE',  ( 2.499999999999998700, -2.500000000000000400, 2.500000000000000000 ) ) ;
#13 = CARTESIAN_POINT ( 'NONE',  ( 2.499999999999998700, 0.0000000000000000000, 2.500000000000000000 ) ) ;
#14 = ORIENTED_EDGE ( 'NONE', *, *, #214, .T. ) ;
#15 = AXIS2_PLACEMENT_3D ( 'NONE', #2, #205, #303 ) ;
#16 = DIRECTION ( 'NONE',  ( 1.000000000000000000, 0.0000000000000000000, 0.0000000000000000000 ) ) ;
#17 = CARTESIAN_POINT ( 'NONE',  ( -9.199760500100243800E-016, -9.199760500100243800E-016, -2.500000000000000000 ) ) ;
#18 = UNCERTAINTY_MEASURE_WITH_UNIT (LENGTH_MEASURE( 1.000000000000000100E-005 ), #281, 'distance_accuracy_value', 'NONE');
#19 = VERTEX_POINT ( 'NONE', #53 ) ;
#20 = FACE_OUTER_BOUND ( 'NONE', #225, .T. ) ;
#21 = LINE ( 'NONE', #17, #284 ) ;
#22 = DIRECTION ( 'NONE',  ( 0.0000000000000000000, 0.0000000000000000000, 1.000000000000000000 ) ) ;
#23 = EDGE_LOOP ( 'NONE', ( #261, #321, #204 ) ) ;
#24 = FACE_OUTER_BOUND ( 'NONE', #9, .T. ) ;
#25 = DATE_AND_TIME ( #62, #147 ) ;
#26 = VERTEX_POINT ( 'NONE', #40 ) ;
#27 = CC_DESIGN_APPROVAL ( #131, ( #151 ) ) ;
#28 = LINE ( 'NONE', #248, #220 ) ;
#29 = CARTESIAN_POINT ( 'NONE',  ( -2.500000000000002200, -2.500000000000000400, 2.500000000000000000 ) ) ;
#30 = LINE ( 'NONE', #34, #239 ) ;
#31 = PERSON_AND_ORGANIZATION_ROLE ( 'classification_officer' ) ;
#32 = DIRECTION ( 'NONE',  ( -0.0000000000000000000, -0.0000000000000000000, -1.000000000000000000 ) ) ;
#33 = ORIENTED_EDGE ( 'NONE', *, *, #278, .F. ) ;
#34 = CARTESIAN_POINT ( 'NONE',  ( 2.499999999999998700, 2.500000000000000400, 2.500000000000000000 ) ) ;
#35 = ORIENTED_EDGE ( 'NONE', *, *, #206, .T. ) ;
#36 = CARTESIAN_POINT ( 'NONE',  ( -9.199760500100243800E-016, -9.199760500100243800E-016, 2.500000000000000000 ) ) ;
#37 = EDGE_CURVE ( 'NONE', #217, #253, #6, .T. ) ;
#38 = ORIENTED_EDGE ( 'NONE', *, *, #91, .T. ) ;
#39 = CARTESIAN_POINT ( 'NONE',  ( 2.499999999999998700, -2.500000000000000400, 2.500000000000000000 ) ) ;
#40 = CARTESIAN_POINT ( 'NONE',  ( -2.500000000000002200, 2.500000000000000400, 2.500000000000000000 ) ) ;
#41 = CARTESIAN_POINT ( 'NONE',  ( 0.0000000000000000000, -2.500000000000000400, -2.500000000000000000 ) ) ;
#42 =( NAMED_UNIT ( * ) PLANE_ANGLE_UNIT ( ) SI_UNIT ( $, .RADIAN. ) );
#43 = CARTESIAN_POINT ( 'NONE',  ( 2.499999999999998700, -2.500000000000000400, -2.500000000000000000 ) ) ;
#44 = ADVANCED_FACE ( 'NONE', ( #210 ), #71, .T. ) ;
#45 = CC_DESIGN_DATE_AND_TIME_ASSIGNMENT ( #152, #251, ( #120 ) ) ;
#46 = ORIENTED_EDGE ( 'NONE', *, *, #61, .T. ) ;
#47 = LINE ( 'NONE', #13, #208 ) ;
#48 = PERSON_AND_ORGANIZATION ( #315, #269 ) ;
#49 = EDGE_LOOP ( 'NONE', ( #209, #287, #200, #68 ) ) ;
#50 = VECTOR ( 'NONE', #130, 1000.000000000000000 ) ;
#51 = VECTOR ( 'NONE', #289, 1000.000000000000000 ) ;
#52 = ORIENTED_EDGE ( 'NONE', *, *, #202, .F. ) ;
#53 = CARTESIAN_POINT ( 'NONE',  ( -2.500000000000002200, 2.500000000000000400, 2.500000000000000000 ) ) ;
#54 = APPLICATION_CONTEXT ( 'configuration controlled 3d designs of mechanical parts and assemblies' ) ;
#55 = ORIENTED_EDGE ( 'NONE', *, *, #206, .F. ) ;
#56 = DIRECTION ( 'NONE',  ( 0.7071067811865474600, -0.7071067811865474600, 0.0000000000000000000 ) ) ;
#57 = CARTESIAN_POINT ( 'NONE',  ( 2.499999999999998700, 0.0000000000000000000, -2.500000000000000000 ) ) ;
#58 = CARTESIAN_POINT ( 'NONE',  ( -2.500000000000002200, 0.0000000000000000000, 2.500000000000000000 ) ) ;
#59 = APPROVAL ( #100, 'UNSPECIFIED' ) ;
#60 = APPROVAL_ROLE ( '' ) ;
#61 = EDGE_CURVE ( 'NONE', #80, #3, #30, .T. ) ;
#62 = CALENDAR_DATE ( 2017, 26, 4 ) ;
#63 = CARTESIAN_POINT ( 'NONE',  ( 0.0000000000000000000, 0.0000000000000000000, -2.500000000000000000 ) ) ;
#64 = FACE_OUTER_BOUND ( 'NONE', #244, .T. ) ;
#65 = PLANE ( 'NONE',  #15 ) ;
#66 = CARTESIAN_POINT ( 'NONE',  ( -2.500000000000002200, 2.500000000000000400, 2.500000000000000000 ) ) ;
#67 = SECURITY_CLASSIFICATION_LEVEL ( 'unclassified' ) ;
#68 = ORIENTED_EDGE ( 'NONE', *, *, #184, .T. ) ;
#69 = APPLICATION_PROTOCOL_DEFINITION ( 'international standard', 'config_control_design', 1994, #54 ) ;
#70 = PRODUCT_DEFINITION_SHAPE ( 'NONE', 'NONE',  #103 ) ;
#71 = PLANE ( 'NONE',  #142 ) ;
#72 = VERTEX_POINT ( 'NONE', #310 ) ;
#73 = LOCAL_TIME ( 12, 25, 33.00000000000000000, #300 ) ;
#74 = CC_DESIGN_APPROVAL ( #59, ( #120 ) ) ;
#75 = EDGE_CURVE ( 'NONE', #253, #3, #309, .T. ) ;
#76 = ADVANCED_FACE ( 'NONE', ( #189 ), #226, .F. ) ;
#77 = DIRECTION ( 'NONE',  ( 0.0000000000000000000, 1.000000000000000000, 0.0000000000000000000 ) ) ;
#78 = DIRECTION ( 'NONE',  ( 0.7071067811865474600, -0.7071067811865474600, 0.0000000000000000000 ) ) ;
#79 = AXIS2_PLACEMENT_3D ( 'NONE', #293, #164, #215 ) ;
#80 = VERTEX_POINT ( 'NONE', #169 ) ;
#81 = ADVANCED_FACE ( 'NONE', ( #87 ), #153, .T. ) ;
#82 = FACE_OUTER_BOUND ( 'NONE', #249, .T. ) ;
#83 = VECTOR ( 'NONE', #16, 1000.000000000000000 ) ;
#84 = PERSON_AND_ORGANIZATION_ROLE ( 'creator' ) ;
#85 = VERTEX_POINT ( 'NONE', #43 ) ;
#86 = CARTESIAN_POINT ( 'NONE',  ( 2.499999999999998700, 0.0000000000000000000, 2.500000000000000000 ) ) ;
#87 = FACE_OUTER_BOUND ( 'NONE', #154, .T. ) ;
#88 = ORIENTED_EDGE ( 'NONE', *, *, #170, .F. ) ;
#89 = CC_DESIGN_SECURITY_CLASSIFICATION ( #120, ( #151 ) ) ;
#90 = ORIENTED_EDGE ( 'NONE', *, *, #75, .T. ) ;
#91 = EDGE_CURVE ( 'NONE', #26, #235, #236, .T. ) ;
#92 = DATE_AND_TIME ( #110, #252 ) ;
#93 = CARTESIAN_POINT ( 'NONE',  ( 2.499999999999998700, -2.500000000000000400, 2.500000000000000000 ) ) ;
#94 = PRODUCT ( 'Web Model 47776_47778', 'Web Model 47776_47778', '', ( #216 ) ) ;
#95 = LINE ( 'NONE', #39, #167 ) ;
#96 = CC_DESIGN_PERSON_AND_ORGANIZATION_ASSIGNMENT ( #48, #282, ( #94 ) ) ;
#97 = EDGE_CURVE ( 'NONE', #72, #235, #99, .T. ) ;
#98 = DIRECTION ( 'NONE',  ( -0.0000000000000000000, -0.0000000000000000000, -1.000000000000000000 ) ) ;
#99 = LINE ( 'NONE', #298, #124 ) ;
#100 = APPROVAL_STATUS ( 'not_yet_approved' ) ;
#101 = APPROVAL_STATUS ( 'not_yet_approved' ) ;
#102 = DIRECTION ( 'NONE',  ( 0.0000000000000000000, 0.0000000000000000000, 1.000000000000000000 ) ) ;
#103 = PRODUCT_DEFINITION ( 'UNKNOWN', '', #151, #318 ) ;
#104 = PERSON_AND_ORGANIZATION_ROLE ( 'creator' ) ;
#105 = PERSON_AND_ORGANIZATION ( #315, #269 ) ;
#106 = EDGE_CURVE ( 'NONE', #19, #201, #28, .T. ) ;
#107 = PRODUCT_RELATED_PRODUCT_CATEGORY ( 'detail', '', ( #94 ) ) ;
#108 = ORIENTED_EDGE ( 'NONE', *, *, #254, .T. ) ;
#109 = DIRECTION ( 'NONE',  ( -0.0000000000000000000, 0.0000000000000000000, 1.000000000000000000 ) ) ;
#110 = CALENDAR_DATE ( 2017, 26, 4 ) ;
#111 = PERSON_AND_ORGANIZATION ( #315, #269 ) ;
#112 = CARTESIAN_POINT ( 'NONE',  ( -2.500000000000002200, -2.500000000000000400, -2.500000000000000000 ) ) ;
#113 = DIRECTION ( 'NONE',  ( 0.0000000000000000000, -0.0000000000000000000, 1.000000000000000000 ) ) ;
#114 = ORIENTED_EDGE ( 'NONE', *, *, #240, .T. ) ;
#115 = APPROVAL_PERSON_ORGANIZATION ( #195, #117, #138 ) ;
#116 = VECTOR ( 'NONE', #257, 1000.000000000000000 ) ;
#117 = APPROVAL ( #128, 'UNSPECIFIED' ) ;
#118 = ORIENTED_EDGE ( 'NONE', *, *, #106, .T. ) ;
#119 = CARTESIAN_POINT ( 'NONE',  ( -2.500000000000002200, 2.500000000000000400, 2.500000000000000000 ) ) ;
#120 = SECURITY_CLASSIFICATION ( '', '', #67 ) ;
#121 = DIRECTION ( 'NONE',  ( -0.7071067811865474600, 0.7071067811865474600, 0.0000000000000000000 ) ) ;
#122 = CARTESIAN_POINT ( 'NONE',  ( 2.499999999999998700, 2.500000000000000400, -2.500000000000000000 ) ) ;
#123 = LINE ( 'NONE', #66, #265 ) ;
#124 = VECTOR ( 'NONE', #218, 1000.000000000000000 ) ;
#125 = DIRECTION ( 'NONE',  ( 1.000000000000000000, 0.0000000000000000000, 0.0000000000000000000 ) ) ;
#126 = AXIS2_PLACEMENT_3D ( 'NONE', #155, #246, #113 ) ;
#127 = COORDINATED_UNIVERSAL_TIME_OFFSET ( 5, 0, .BEHIND. ) ;
#128 = APPROVAL_STATUS ( 'not_yet_approved' ) ;
#129 = ORIENTED_EDGE ( 'NONE', *, *, #254, .F. ) ;
#130 = DIRECTION ( 'NONE',  ( -0.0000000000000000000, -0.0000000000000000000, -1.000000000000000000 ) ) ;
#131 = APPROVAL ( #101, 'UNSPECIFIED' ) ;
#132 = EDGE_CURVE ( 'NONE', #301, #85, #181, .T. ) ;
#133 = VECTOR ( 'NONE', #56, 1000.000000000000100 ) ;
#134 = DIRECTION ( 'NONE',  ( 1.000000000000000000, 0.0000000000000000000, 0.0000000000000000000 ) ) ;
#135 = APPROVAL_DATE_TIME ( #25, #131 ) ;
#136 = CC_DESIGN_PERSON_AND_ORGANIZATION_ASSIGNMENT ( #203, #31, ( #120 ) ) ;
#137 = VERTEX_POINT ( 'NONE', #227 ) ;
#138 = APPROVAL_ROLE ( '' ) ;
#139 = DIRECTION ( 'NONE',  ( 0.0000000000000000000, 1.000000000000000000, -0.0000000000000000000 ) ) ;
#140 = ORIENTED_EDGE ( 'NONE', *, *, #202, .T. ) ;
#141 = APPROVAL_DATE_TIME ( #4, #117 ) ;
#142 = AXIS2_PLACEMENT_3D ( 'NONE', #161, #144, #102 ) ;
#143 = VECTOR ( 'NONE', #258, 1000.000000000000100 ) ;
#144 = DIRECTION ( 'NONE',  ( -1.000000000000000000, 0.0000000000000000000, 0.0000000000000000000 ) ) ;
#145 = PERSON_AND_ORGANIZATION ( #315, #269 ) ;
#146 = CARTESIAN_POINT ( 'NONE',  ( 0.0000000000000000000, 0.0000000000000000000, 2.500000000000000000 ) ) ;
#147 = LOCAL_TIME ( 12, 25, 33.00000000000000000, #179 ) ;
#148 = PLANE ( 'NONE',  #224 ) ;
#149 = PLANE ( 'NONE',  #255 ) ;
#150 = DIRECTION ( 'NONE',  ( 0.7071067811865475700, 0.7071067811865475700, -0.0000000000000000000 ) ) ;
#151 = PRODUCT_DEFINITION_FORMATION_WITH_SPECIFIED_SOURCE ( 'ANY', '', #94, .NOT_KNOWN. ) ;
#152 = DATE_AND_TIME ( #168, #270 ) ;
#153 = PLANE ( 'NONE',  #182 ) ;
#154 = EDGE_LOOP ( 'NONE', ( #118, #285, #129 ) ) ;
#155 = CARTESIAN_POINT ( 'NONE',  ( 0.0000000000000000000, -2.500000000000000400, 2.500000000000000000 ) ) ;
#156 = CARTESIAN_POINT ( 'NONE',  ( -9.199760500100243800E-016, -9.199760500100243800E-016, 2.500000000000000000 ) ) ;
#157 = DIRECTION ( 'NONE',  ( 0.0000000000000000000, -0.0000000000000000000, 1.000000000000000000 ) ) ;
#158 = EDGE_CURVE ( 'NONE', #137, #85, #21, .T. ) ;
#159 = DIRECTION ( 'NONE',  ( 0.7071067811865475700, 0.7071067811865475700, -0.0000000000000000000 ) ) ;
#160 = CC_DESIGN_DATE_AND_TIME_ASSIGNMENT ( #275, #241, ( #103 ) ) ;
#161 = CARTESIAN_POINT ( 'NONE',  ( -2.500000000000002200, 0.0000000000000000000, 2.500000000000000000 ) ) ;
#162 = CALENDAR_DATE ( 2017, 26, 4 ) ;
#163 = LINE ( 'NONE', #174, #116 ) ;
#164 = DIRECTION ( 'NONE',  ( 0.0000000000000000000, 0.0000000000000000000, 1.000000000000000000 ) ) ;
#165 = VECTOR ( 'NONE', #7, 1000.000000000000000 ) ;
#166 = CARTESIAN_POINT ( 'NONE',  ( 0.0000000000000000000, 0.0000000000000000000, -2.500000000000000000 ) ) ;
#167 = VECTOR ( 'NONE', #8, 1000.000000000000000 ) ;
#168 = CALENDAR_DATE ( 2017, 26, 4 ) ;
#169 = CARTESIAN_POINT ( 'NONE',  ( 2.499999999999998700, 2.500000000000000400, 2.500000000000000000 ) ) ;
#170 = EDGE_CURVE ( 'NONE', #235, #85, #259, .T. ) ;
#171 = ORIENTED_EDGE ( 'NONE', *, *, #158, .F. ) ;
#172 = APPLICATION_CONTEXT ( 'configuration controlled 3d designs of mechanical parts and assemblies' ) ;
#173 = CALENDAR_DATE ( 2017, 26, 4 ) ;
#174 = CARTESIAN_POINT ( 'NONE',  ( -0.0000000000000000000, 2.500000000000000400, -2.500000000000000000 ) ) ;
#175 = DIRECTION ( 'NONE',  ( -0.0000000000000000000, -0.0000000000000000000, -1.000000000000000000 ) ) ;
#176 = SHAPE_DEFINITION_REPRESENTATION ( #70, #317 ) ;
#177 = EDGE_CURVE ( 'NONE', #201, #80, #47, .T. ) ;
#178 = CARTESIAN_POINT ( 'NONE',  ( -2.500000000000002200, 0.0000000000000000000, -2.500000000000000000 ) ) ;
#179 = COORDINATED_UNIVERSAL_TIME_OFFSET ( 5, 0, .BEHIND. ) ;
#180 = LINE ( 'NONE', #29, #299 ) ;
#181 = LINE ( 'NONE', #41, #83 ) ;
#182 = AXIS2_PLACEMENT_3D ( 'NONE', #146, #1, #125 ) ;
#183 = VECTOR ( 'NONE', #32, 1000.000000000000000 ) ;
#184 = EDGE_CURVE ( 'NONE', #19, #217, #123, .T. ) ;
#185 = PLANE ( 'NONE',  #192 ) ;
#186 = LINE ( 'NONE', #119, #183 ) ;
#187 = CARTESIAN_POINT ( 'NONE',  ( -9.199760500100243800E-016, -9.199760500100243800E-016, 2.500000000000000000 ) ) ;
#188 = LINE ( 'NONE', #11, #256 ) ;
#189 = FACE_OUTER_BOUND ( 'NONE', #292, .T. ) ;
#190 = PLANE ( 'NONE',  #302 ) ;
#191 = LINE ( 'NONE', #178, #165 ) ;
#192 = AXIS2_PLACEMENT_3D ( 'NONE', #36, #159, #121 ) ;
#193 = ORIENTED_EDGE ( 'NONE', *, *, #61, .F. ) ;
#194 = DIRECTION ( 'NONE',  ( -0.7071067811865474600, 0.7071067811865474600, 0.0000000000000000000 ) ) ;
#195 = PERSON_AND_ORGANIZATION ( #315, #269 ) ;
#196 = CARTESIAN_POINT ( 'NONE',  ( -2.500000000000002200, 2.500000000000000400, -2.500000000000000000 ) ) ;
#197 = APPROVAL_DATE_TIME ( #92, #59 ) ;
#198 = PERSON_AND_ORGANIZATION_ROLE ( 'design_supplier' ) ;
#199 = ADVANCED_FACE ( 'NONE', ( #24 ), #148, .T. ) ;
#200 = ORIENTED_EDGE ( 'NONE', *, *, #106, .F. ) ;
#201 = VERTEX_POINT ( 'NONE', #93 ) ;
#202 = EDGE_CURVE ( 'NONE', #217, #3, #163, .T. ) ;
#203 = PERSON_AND_ORGANIZATION ( #315, #269 ) ;
#204 = ORIENTED_EDGE ( 'NONE', *, *, #132, .F. ) ;
#205 = DIRECTION ( 'NONE',  ( -0.0000000000000000000, 0.0000000000000000000, 1.000000000000000000 ) ) ;
#206 = EDGE_CURVE ( 'NONE', #26, #137, #186, .T. ) ;
#207 = DIRECTION ( 'NONE',  ( -0.0000000000000000000, 0.0000000000000000000, 1.000000000000000000 ) ) ;
#208 = VECTOR ( 'NONE', #238, 1000.000000000000000 ) ;
#209 = ORIENTED_EDGE ( 'NONE', *, *, #37, .T. ) ;
#210 = FACE_OUTER_BOUND ( 'NONE', #260, .T. ) ;
#211 = ORIENTED_EDGE ( 'NONE', *, *, #170, .T. ) ;
#212 = ORIENTED_EDGE ( 'NONE', *, *, #97, .T. ) ;
#213 = APPROVAL_PERSON_ORGANIZATION ( #111, #131, #60 ) ;
#214 = EDGE_CURVE ( 'NONE', #201, #253, #95, .T. ) ;
#215 = DIRECTION ( 'NONE',  ( 1.000000000000000000, 0.0000000000000000000, 0.0000000000000000000 ) ) ;
#216 = MECHANICAL_CONTEXT ( 'NONE', #54, 'mechanical' ) ;
#217 = VERTEX_POINT ( 'NONE', #196 ) ;
#218 = DIRECTION ( 'NONE',  ( 1.000000000000000000, 0.0000000000000000000, 0.0000000000000000000 ) ) ;
#219 = CARTESIAN_POINT ( 'NONE',  ( -9.199760500100243800E-016, -9.199760500100243800E-016, -2.500000000000000000 ) ) ;
#220 = VECTOR ( 'NONE', #78, 1000.000000000000100 ) ;
#221 = ADVANCED_FACE ( 'NONE', ( #242 ), #149, .F. ) ;
#222 = PLANE ( 'NONE',  #263 ) ;
#223 = VECTOR ( 'NONE', #139, 1000.000000000000000 ) ;
#224 = AXIS2_PLACEMENT_3D ( 'NONE', #280, #77, #157 ) ;
#225 = EDGE_LOOP ( 'NONE', ( #171, #55, #38, #211 ) ) ;
#226 = PLANE ( 'NONE',  #126 ) ;
#227 = CARTESIAN_POINT ( 'NONE',  ( -2.500000000000002200, 2.500000000000000400, -2.500000000000000000 ) ) ;
#228 = ORIENTED_EDGE ( 'NONE', *, *, #304, .F. ) ;
#229 = AXIS2_PLACEMENT_3D ( 'NONE', #63, #109, #272 ) ;
#230 = MANIFOLD_SOLID_BREP ( 'Boss-Extrude2', #312 ) ;
#231 = ADVANCED_FACE ( 'NONE', ( #232 ), #306, .F. ) ;
#232 = FACE_OUTER_BOUND ( 'NONE', #23, .T. ) ;
#233 = ADVANCED_FACE ( 'NONE', ( #82 ), #222, .F. ) ;
#234 = ORIENTED_EDGE ( 'NONE', *, *, #240, .F. ) ;
#235 = VERTEX_POINT ( 'NONE', #262 ) ;
#236 = LINE ( 'NONE', #187, #133 ) ;
#237 = LINE ( 'NONE', #58, #51 ) ;
#238 = DIRECTION ( 'NONE',  ( 0.0000000000000000000, 1.000000000000000000, -0.0000000000000000000 ) ) ;
#239 = VECTOR ( 'NONE', #175, 1000.000000000000000 ) ;
#240 = EDGE_CURVE ( 'NONE', #72, #301, #180, .T. ) ;
#241 = DATE_TIME_ROLE ( 'creation_date' ) ;
#242 = FACE_OUTER_BOUND ( 'NONE', #49, .T. ) ;
#243 = APPROVAL_PERSON_ORGANIZATION ( #105, #59, #266 ) ;
#244 = EDGE_LOOP ( 'NONE', ( #90, #193, #288, #14 ) ) ;
#245 = ADVANCED_FACE ( 'NONE', ( #20 ), #185, .T. ) ;
#246 = DIRECTION ( 'NONE',  ( 0.0000000000000000000, 1.000000000000000000, 0.0000000000000000000 ) ) ;
#247 = ORIENTED_EDGE ( 'NONE', *, *, #97, .F. ) ;
#248 = CARTESIAN_POINT ( 'NONE',  ( -9.199760500100243800E-016, -9.199760500100243800E-016, 2.500000000000000000 ) ) ;
#249 = EDGE_LOOP ( 'NONE', ( #308, #140, #279 ) ) ;
#250 = DIRECTION ( 'NONE',  ( -0.0000000000000000000, -0.0000000000000000000, -1.000000000000000000 ) ) ;
#251 = DATE_TIME_ROLE ( 'classification_date' ) ;
#252 = LOCAL_TIME ( 12, 25, 33.00000000000000000, #127 ) ;
#253 = VERTEX_POINT ( 'NONE', #291 ) ;
#254 = EDGE_CURVE ( 'NONE', #19, #80, #188, .T. ) ;
#255 = AXIS2_PLACEMENT_3D ( 'NONE', #156, #150, #194 ) ;
#256 = VECTOR ( 'NONE', #283, 1000.000000000000000 ) ;
#257 = DIRECTION ( 'NONE',  ( 1.000000000000000000, 0.0000000000000000000, 0.0000000000000000000 ) ) ;
#258 = DIRECTION ( 'NONE',  ( 0.7071067811865474600, -0.7071067811865474600, 0.0000000000000000000 ) ) ;
#259 = LINE ( 'NONE', #12, #50 ) ;
#260 = EDGE_LOOP ( 'NONE', ( #228, #234, #296, #35 ) ) ;
#261 = ORIENTED_EDGE ( 'NONE', *, *, #304, .T. ) ;
#262 = CARTESIAN_POINT ( 'NONE',  ( 2.499999999999998700, -2.500000000000000400, 2.500000000000000000 ) ) ;
#263 = AXIS2_PLACEMENT_3D ( 'NONE', #166, #207, #134 ) ;
#264 = ORIENTED_EDGE ( 'NONE', *, *, #132, .T. ) ;
#265 = VECTOR ( 'NONE', #98, 1000.000000000000000 ) ;
#266 = APPROVAL_ROLE ( '' ) ;
#267 = APPLICATION_PROTOCOL_DEFINITION ( 'international standard', 'config_control_design', 1994, #172 ) ;
#268 = EDGE_LOOP ( 'NONE', ( #33, #212, #307 ) ) ;
#269 = ORGANIZATION ( 'UNSPECIFIED', 'UNSPECIFIED', '' ) ;
#270 = LOCAL_TIME ( 12, 25, 33.00000000000000000, #313 ) ;
#271 = DIRECTION ( 'NONE',  ( -1.000000000000000000, 0.0000000000000000000, 0.0000000000000000000 ) ) ;
#272 = DIRECTION ( 'NONE',  ( 1.000000000000000000, 0.0000000000000000000, 0.0000000000000000000 ) ) ;
#273 = LOCAL_TIME ( 12, 25, 33.00000000000000000, #319 ) ;
#274 = PERSON_AND_ORGANIZATION ( #315, #269 ) ;
#275 = DATE_AND_TIME ( #162, #73 ) ;
#276 = CC_DESIGN_PERSON_AND_ORGANIZATION_ASSIGNMENT ( #295, #84, ( #103 ) ) ;
#277 = ADVANCED_FACE ( 'NONE', ( #64 ), #190, .F. ) ;
#278 = EDGE_CURVE ( 'NONE', #72, #26, #237, .T. ) ;
#279 = ORIENTED_EDGE ( 'NONE', *, *, #75, .F. ) ;
#280 = CARTESIAN_POINT ( 'NONE',  ( 0.0000000000000000000, 2.500000000000000400, 2.500000000000000000 ) ) ;
#281 =( LENGTH_UNIT ( ) NAMED_UNIT ( * ) SI_UNIT ( .MILLI., .METRE. ) );
#282 = PERSON_AND_ORGANIZATION_ROLE ( 'design_owner' ) ;
#283 = DIRECTION ( 'NONE',  ( 1.000000000000000000, 0.0000000000000000000, 0.0000000000000000000 ) ) ;
#284 = VECTOR ( 'NONE', #320, 1000.000000000000100 ) ;
#285 = ORIENTED_EDGE ( 'NONE', *, *, #177, .T. ) ;
#286 = CLOSED_SHELL ( 'NONE', ( #221, #277, #199, #81, #233 ) ) ;
#287 = ORIENTED_EDGE ( 'NONE', *, *, #214, .F. ) ;
#288 = ORIENTED_EDGE ( 'NONE', *, *, #177, .F. ) ;
#289 = DIRECTION ( 'NONE',  ( 0.0000000000000000000, 1.000000000000000000, -0.0000000000000000000 ) ) ;
#290 = CC_DESIGN_APPROVAL ( #117, ( #103 ) ) ;
#291 = CARTESIAN_POINT ( 'NONE',  ( 2.499999999999998700, -2.500000000000000400, -2.500000000000000000 ) ) ;
#292 = EDGE_LOOP ( 'NONE', ( #264, #88, #247, #114 ) ) ;
#293 = CARTESIAN_POINT ( 'NONE',  ( 0.0000000000000000000, 0.0000000000000000000, 0.0000000000000000000 ) ) ;
#294 = ADVANCED_FACE ( 'NONE', ( #297 ), #65, .T. ) ;
#295 = PERSON_AND_ORGANIZATION ( #315, #269 ) ;
#296 = ORIENTED_EDGE ( 'NONE', *, *, #278, .T. ) ;
#297 = FACE_OUTER_BOUND ( 'NONE', #268, .T. ) ;
#298 = CARTESIAN_POINT ( 'NONE',  ( 0.0000000000000000000, -2.500000000000000400, 2.500000000000000000 ) ) ;
#299 = VECTOR ( 'NONE', #250, 1000.000000000000000 ) ;
#300 = COORDINATED_UNIVERSAL_TIME_OFFSET ( 5, 0, .BEHIND. ) ;
#301 = VERTEX_POINT ( 'NONE', #112 ) ;
#302 = AXIS2_PLACEMENT_3D ( 'NONE', #86, #271, #22 ) ;
#303 = DIRECTION ( 'NONE',  ( 1.000000000000000000, 0.0000000000000000000, 0.0000000000000000000 ) ) ;
#304 = EDGE_CURVE ( 'NONE', #301, #137, #191, .T. ) ;
#305 =( NAMED_UNIT ( * ) SI_UNIT ( $, .STERADIAN. ) SOLID_ANGLE_UNIT ( ) );
#306 = PLANE ( 'NONE',  #229 ) ;
#307 = ORIENTED_EDGE ( 'NONE', *, *, #91, .F. ) ;
#308 = ORIENTED_EDGE ( 'NONE', *, *, #37, .F. ) ;
#309 = LINE ( 'NONE', #57, #223 ) ;
#310 = CARTESIAN_POINT ( 'NONE',  ( -2.500000000000002200, -2.500000000000000400, 2.500000000000000000 ) ) ;
#311 = CC_DESIGN_PERSON_AND_ORGANIZATION_ASSIGNMENT ( #145, #198, ( #151 ) ) ;
#312 = CLOSED_SHELL ( 'NONE', ( #44, #76, #245, #294, #231 ) ) ;
#313 = COORDINATED_UNIVERSAL_TIME_OFFSET ( 5, 0, .BEHIND. ) ;
#314 = MANIFOLD_SOLID_BREP ( 'Boss-Extrude3', #286 ) ;
#315 = PERSON ( 'UNSPECIFIED', 'UNSPECIFIED', 'UNSPECIFIED', ('UNSPECIFIED'), ('UNSPECIFIED'), ('UNSPECIFIED') ) ;
#316 =( GEOMETRIC_REPRESENTATION_CONTEXT ( 3 ) GLOBAL_UNCERTAINTY_ASSIGNED_CONTEXT ( ( #18 ) ) GLOBAL_UNIT_ASSIGNED_CONTEXT ( ( #281, #42, #305 ) ) REPRESENTATION_CONTEXT ( 'NONE', 'WORKASPACE' ) );
#317 = ADVANCED_BREP_SHAPE_REPRESENTATION ( 'Web Model 47776_47778', ( #230, #314, #79 ), #316 ) ;
#318 = DESIGN_CONTEXT ( 'detailed design', #172, 'design' ) ;
#319 = COORDINATED_UNIVERSAL_TIME_OFFSET ( 5, 0, .BEHIND. ) ;
#320 = DIRECTION ( 'NONE',  ( 0.7071067811865474600, -0.7071067811865474600, 0.0000000000000000000 ) ) ;
#321 = ORIENTED_EDGE ( 'NONE', *, *, #158, .T. ) ;
ENDSEC;
END-ISO-10303-21;
