ISO-10303-21;
HEADER;
FILE_DESCRIPTION (( 'STEP AP203' ),
    '1' );
FILE_NAME ('Web Model 83104.STEP',
    '2017-02-01T15:10:17',
    ( '' ),
    ( '' ),
    'SwSTEP 2.0',
    'SolidWorks 2016',
    '' );
FILE_SCHEMA (( 'CONFIG_CONTROL_DESIGN' ));
ENDSEC;

DATA;
#1 = DIRECTION ( 'NONE',  ( 1.000000000000000000, 0.0000000000000000000, 0.0000000000000000000 ) ) ;
#2 = LOCAL_TIME ( 10, 10, 17.00000000000000000, #121 ) ;
#3 = CARTESIAN_POINT ( 'NONE',  ( 15.00000000000000000, 1.836970198721029600E-015, 0.0000000000000000000 ) ) ;
#4 =( GEOMETRIC_REPRESENTATION_CONTEXT ( 3 ) GLOBAL_UNCERTAINTY_ASSIGNED_CONTEXT ( ( #10 ) ) GLOBAL_UNIT_ASSIGNED_CONTEXT ( ( #35, #57, #44 ) ) REPRESENTATION_CONTEXT ( 'NONE', 'WORKASPACE' ) );
#5 = APPLICATION_PROTOCOL_DEFINITION ( 'international standard', 'config_control_design', 1994, #129 ) ;
#6 = APPROVAL_PERSON_ORGANIZATION ( #40, #140, #124 ) ;
#7 = CARTESIAN_POINT ( 'NONE',  ( 0.0000000000000000000, 0.0000000000000000000, 0.0000000000000000000 ) ) ;
#8 = PERSON_AND_ORGANIZATION_ROLE ( 'design_supplier' ) ;
#9 = CC_DESIGN_APPROVAL ( #77, ( #91 ) ) ;
#10 = UNCERTAINTY_MEASURE_WITH_UNIT (LENGTH_MEASURE( 1.000000000000000100E-005 ), #35, 'distance_accuracy_value', 'NONE');
#11 = ORIENTED_EDGE ( 'NONE', *, *, #106, .T. ) ;
#12 = PRODUCT ( 'Web Model 83104', 'Web Model 83104', '', ( #32 ) ) ;
#13 = CARTESIAN_POINT ( 'NONE',  ( 0.0000000000000000000, 0.0000000000000000000, 0.2000000000000000100 ) ) ;
#14 = FACE_OUTER_BOUND ( 'NONE', #134, .T. ) ;
#15 = ORIENTED_EDGE ( 'NONE', *, *, #89, .T. ) ;
#16 = CARTESIAN_POINT ( 'NONE',  ( -15.00000000000000000, 0.0000000000000000000, 0.0000000000000000000 ) ) ;
#17 = SHAPE_DEFINITION_REPRESENTATION ( #131, #120 ) ;
#18 = CARTESIAN_POINT ( 'NONE',  ( -15.00000000000000000, 0.0000000000000000000, 0.2000000000000000100 ) ) ;
#19 = DIRECTION ( 'NONE',  ( 1.000000000000000000, 0.0000000000000000000, 0.0000000000000000000 ) ) ;
#20 = VERTEX_POINT ( 'NONE', #18 ) ;
#21 = APPROVAL_STATUS ( 'not_yet_approved' ) ;
#22 = EDGE_LOOP ( 'NONE', ( #38, #156, #48, #76 ) ) ;
#23 = APPROVAL_ROLE ( '' ) ;
#24 = MANIFOLD_SOLID_BREP ( 'Extrude1', #163 ) ;
#25 = PERSON_AND_ORGANIZATION ( #135, #50 ) ;
#26 = CC_DESIGN_APPROVAL ( #140, ( #107 ) ) ;
#27 = CC_DESIGN_PERSON_AND_ORGANIZATION_ASSIGNMENT ( #68, #128, ( #12 ) ) ;
#28 = PERSON_AND_ORGANIZATION ( #135, #50 ) ;
#29 = CARTESIAN_POINT ( 'NONE',  ( 0.0000000000000000000, 0.0000000000000000000, 0.2000000000000000100 ) ) ;
#30 = APPROVAL_PERSON_ORGANIZATION ( #28, #65, #23 ) ;
#31 = PLANE ( 'NONE',  #151 ) ;
#32 = MECHANICAL_CONTEXT ( 'NONE', #104, 'mechanical' ) ;
#33 = EDGE_CURVE ( 'NONE', #20, #167, #126, .T. ) ;
#34 = ADVANCED_FACE ( 'NONE', ( #101 ), #162, .T. ) ;
#35 =( LENGTH_UNIT ( ) NAMED_UNIT ( * ) SI_UNIT ( .MILLI., .METRE. ) );
#36 = VERTEX_POINT ( 'NONE', #16 ) ;
#37 = CALENDAR_DATE ( 2017, 1, 2 ) ;
#38 = ORIENTED_EDGE ( 'NONE', *, *, #89, .F. ) ;
#39 = PRODUCT_DEFINITION_FORMATION_WITH_SPECIFIED_SOURCE ( 'ANY', '', #12, .NOT_KNOWN. ) ;
#40 = PERSON_AND_ORGANIZATION ( #135, #50 ) ;
#41 = DIRECTION ( 'NONE',  ( 0.0000000000000000000, 0.0000000000000000000, 1.000000000000000000 ) ) ;
#42 = DIRECTION ( 'NONE',  ( -0.0000000000000000000, -0.0000000000000000000, -1.000000000000000000 ) ) ;
#43 = CIRCLE ( 'NONE', #123, 15.00000000000000000 ) ;
#44 =( NAMED_UNIT ( * ) SI_UNIT ( $, .STERADIAN. ) SOLID_ANGLE_UNIT ( ) );
#45 = CC_DESIGN_PERSON_AND_ORGANIZATION_ASSIGNMENT ( #25, #8, ( #39 ) ) ;
#46 = FACE_OUTER_BOUND ( 'NONE', #22, .T. ) ;
#47 = COORDINATED_UNIVERSAL_TIME_OFFSET ( 5, 0, .BEHIND. ) ;
#48 = ORIENTED_EDGE ( 'NONE', *, *, #67, .T. ) ;
#49 = CC_DESIGN_PERSON_AND_ORGANIZATION_ASSIGNMENT ( #92, #103, ( #39 ) ) ;
#50 = ORGANIZATION ( 'UNSPECIFIED', 'UNSPECIFIED', '' ) ;
#51 = AXIS2_PLACEMENT_3D ( 'NONE', #7, #75, #127 ) ;
#52 = CARTESIAN_POINT ( 'NONE',  ( 0.0000000000000000000, 0.0000000000000000000, 0.2000000000000000100 ) ) ;
#53 = DIRECTION ( 'NONE',  ( 1.000000000000000000, 0.0000000000000000000, 0.0000000000000000000 ) ) ;
#54 = CALENDAR_DATE ( 2017, 1, 2 ) ;
#55 = DIRECTION ( 'NONE',  ( 1.000000000000000000, 0.0000000000000000000, 0.0000000000000000000 ) ) ;
#56 = CARTESIAN_POINT ( 'NONE',  ( 0.0000000000000000000, 0.0000000000000000000, 0.0000000000000000000 ) ) ;
#57 =( NAMED_UNIT ( * ) PLANE_ANGLE_UNIT ( ) SI_UNIT ( $, .RADIAN. ) );
#58 = DIRECTION ( 'NONE',  ( -1.000000000000000000, 0.0000000000000000000, 0.0000000000000000000 ) ) ;
#59 = CC_DESIGN_PERSON_AND_ORGANIZATION_ASSIGNMENT ( #172, #99, ( #107 ) ) ;
#60 = LINE ( 'NONE', #74, #144 ) ;
#61 = EDGE_LOOP ( 'NONE', ( #112, #15 ) ) ;
#62 = EDGE_CURVE ( 'NONE', #167, #170, #122, .T. ) ;
#63 = PERSON_AND_ORGANIZATION ( #135, #50 ) ;
#64 = APPROVAL_DATE_TIME ( #133, #65 ) ;
#65 = APPROVAL ( #81, 'UNSPECIFIED' ) ;
#66 = LOCAL_TIME ( 10, 10, 17.00000000000000000, #173 ) ;
#67 = EDGE_CURVE ( 'NONE', #170, #36, #138, .T. ) ;
#68 = PERSON_AND_ORGANIZATION ( #135, #50 ) ;
#69 = PERSON_AND_ORGANIZATION ( #135, #50 ) ;
#70 = ORIENTED_EDGE ( 'NONE', *, *, #67, .F. ) ;
#71 = CARTESIAN_POINT ( 'NONE',  ( 0.0000000000000000000, 0.0000000000000000000, 0.0000000000000000000 ) ) ;
#72 = DIRECTION ( 'NONE',  ( 1.000000000000000000, 0.0000000000000000000, -0.0000000000000000000 ) ) ;
#73 = CALENDAR_DATE ( 2017, 1, 2 ) ;
#74 = CARTESIAN_POINT ( 'NONE',  ( -15.00000000000000000, 0.0000000000000000000, 0.2000000000000000100 ) ) ;
#75 = DIRECTION ( 'NONE',  ( 0.0000000000000000000, 0.0000000000000000000, 1.000000000000000000 ) ) ;
#76 = ORIENTED_EDGE ( 'NONE', *, *, #106, .F. ) ;
#77 = APPROVAL ( #139, 'UNSPECIFIED' ) ;
#78 = EDGE_CURVE ( 'NONE', #36, #170, #169, .T. ) ;
#79 = VECTOR ( 'NONE', #137, 1000.000000000000000 ) ;
#80 = DIRECTION ( 'NONE',  ( 0.0000000000000000000, 0.0000000000000000000, 1.000000000000000000 ) ) ;
#81 = APPROVAL_STATUS ( 'not_yet_approved' ) ;
#82 = DATE_TIME_ROLE ( 'creation_date' ) ;
#83 = CYLINDRICAL_SURFACE ( 'NONE', #160, 15.00000000000000000 ) ;
#84 = DIRECTION ( 'NONE',  ( 1.000000000000000000, 0.0000000000000000000, -0.0000000000000000000 ) ) ;
#85 = AXIS2_PLACEMENT_3D ( 'NONE', #164, #175, #1 ) ;
#86 = CC_DESIGN_PERSON_AND_ORGANIZATION_ASSIGNMENT ( #69, #125, ( #91 ) ) ;
#87 = DATE_AND_TIME ( #94, #66 ) ;
#88 = LOCAL_TIME ( 10, 10, 17.00000000000000000, #171 ) ;
#89 = EDGE_CURVE ( 'NONE', #167, #20, #43, .T. ) ;
#90 = CYLINDRICAL_SURFACE ( 'NONE', #132, 15.00000000000000000 ) ;
#91 = PRODUCT_DEFINITION ( 'UNKNOWN', '', #39, #110 ) ;
#92 = PERSON_AND_ORGANIZATION ( #135, #50 ) ;
#93 = ORIENTED_EDGE ( 'NONE', *, *, #33, .F. ) ;
#94 = CALENDAR_DATE ( 2017, 1, 2 ) ;
#95 = DIRECTION ( 'NONE',  ( -1.000000000000000000, 0.0000000000000000000, 0.0000000000000000000 ) ) ;
#96 = FACE_OUTER_BOUND ( 'NONE', #111, .T. ) ;
#97 = DIRECTION ( 'NONE',  ( 0.0000000000000000000, 0.0000000000000000000, 1.000000000000000000 ) ) ;
#98 = AXIS2_PLACEMENT_3D ( 'NONE', #29, #80, #72 ) ;
#99 = PERSON_AND_ORGANIZATION_ROLE ( 'classification_officer' ) ;
#100 = DATE_AND_TIME ( #143, #2 ) ;
#101 = FACE_OUTER_BOUND ( 'NONE', #61, .T. ) ;
#102 = ADVANCED_FACE ( 'NONE', ( #46 ), #83, .T. ) ;
#103 = PERSON_AND_ORGANIZATION_ROLE ( 'creator' ) ;
#104 = APPLICATION_CONTEXT ( 'configuration controlled 3d designs of mechanical parts and assemblies' ) ;
#105 = COORDINATED_UNIVERSAL_TIME_OFFSET ( 5, 0, .BEHIND. ) ;
#106 = EDGE_CURVE ( 'NONE', #20, #36, #60, .T. ) ;
#107 = SECURITY_CLASSIFICATION ( '', '', #153 ) ;
#108 = LOCAL_TIME ( 10, 10, 17.00000000000000000, #47 ) ;
#109 = CC_DESIGN_APPROVAL ( #65, ( #39 ) ) ;
#110 = DESIGN_CONTEXT ( 'detailed design', #129, 'design' ) ;
#111 = EDGE_LOOP ( 'NONE', ( #118, #70 ) ) ;
#112 = ORIENTED_EDGE ( 'NONE', *, *, #33, .T. ) ;
#113 = APPROVAL_DATE_TIME ( #155, #77 ) ;
#114 = ADVANCED_FACE ( 'NONE', ( #96 ), #31, .F. ) ;
#115 = APPLICATION_PROTOCOL_DEFINITION ( 'international standard', 'config_control_design', 1994, #104 ) ;
#116 = CARTESIAN_POINT ( 'NONE',  ( 15.00000000000000000, 1.836970198721029600E-015, 0.2000000000000000100 ) ) ;
#117 = AXIS2_PLACEMENT_3D ( 'NONE', #71, #41, #55 ) ;
#118 = ORIENTED_EDGE ( 'NONE', *, *, #78, .F. ) ;
#119 = AXIS2_PLACEMENT_3D ( 'NONE', #13, #174, #53 ) ;
#120 = ADVANCED_BREP_SHAPE_REPRESENTATION ( 'Web Model 83104', ( #24, #51 ), #4 ) ;
#121 = COORDINATED_UNIVERSAL_TIME_OFFSET ( 5, 0, .BEHIND. ) ;
#122 = LINE ( 'NONE', #147, #79 ) ;
#123 = AXIS2_PLACEMENT_3D ( 'NONE', #149, #97, #19 ) ;
#124 = APPROVAL_ROLE ( '' ) ;
#125 = PERSON_AND_ORGANIZATION_ROLE ( 'creator' ) ;
#126 = CIRCLE ( 'NONE', #119, 15.00000000000000000 ) ;
#127 = DIRECTION ( 'NONE',  ( 1.000000000000000000, 0.0000000000000000000, 0.0000000000000000000 ) ) ;
#128 = PERSON_AND_ORGANIZATION_ROLE ( 'design_owner' ) ;
#129 = APPLICATION_CONTEXT ( 'configuration controlled 3d designs of mechanical parts and assemblies' ) ;
#130 = LOCAL_TIME ( 10, 10, 17.00000000000000000, #105 ) ;
#131 = PRODUCT_DEFINITION_SHAPE ( 'NONE', 'NONE',  #91 ) ;
#132 = AXIS2_PLACEMENT_3D ( 'NONE', #161, #150, #58 ) ;
#133 = DATE_AND_TIME ( #37, #88 ) ;
#134 = EDGE_LOOP ( 'NONE', ( #146, #93, #11, #141 ) ) ;
#135 = PERSON ( 'UNSPECIFIED', 'UNSPECIFIED', 'UNSPECIFIED', ('UNSPECIFIED'), ('UNSPECIFIED'), ('UNSPECIFIED') ) ;
#136 = CC_DESIGN_DATE_AND_TIME_ASSIGNMENT ( #158, #166, ( #107 ) ) ;
#137 = DIRECTION ( 'NONE',  ( -0.0000000000000000000, -0.0000000000000000000, -1.000000000000000000 ) ) ;
#138 = CIRCLE ( 'NONE', #85, 15.00000000000000000 ) ;
#139 = APPROVAL_STATUS ( 'not_yet_approved' ) ;
#140 = APPROVAL ( #21, 'UNSPECIFIED' ) ;
#141 = ORIENTED_EDGE ( 'NONE', *, *, #78, .T. ) ;
#142 = DIRECTION ( 'NONE',  ( 0.0000000000000000000, 0.0000000000000000000, 1.000000000000000000 ) ) ;
#143 = CALENDAR_DATE ( 2017, 1, 2 ) ;
#144 = VECTOR ( 'NONE', #168, 1000.000000000000000 ) ;
#145 = CC_DESIGN_DATE_AND_TIME_ASSIGNMENT ( #100, #82, ( #91 ) ) ;
#146 = ORIENTED_EDGE ( 'NONE', *, *, #62, .F. ) ;
#147 = CARTESIAN_POINT ( 'NONE',  ( 15.00000000000000000, 1.836970198721029600E-015, 0.2000000000000000100 ) ) ;
#148 = CC_DESIGN_SECURITY_CLASSIFICATION ( #107, ( #39 ) ) ;
#149 = CARTESIAN_POINT ( 'NONE',  ( 0.0000000000000000000, 0.0000000000000000000, 0.2000000000000000100 ) ) ;
#150 = DIRECTION ( 'NONE',  ( -0.0000000000000000000, -0.0000000000000000000, -1.000000000000000000 ) ) ;
#151 = AXIS2_PLACEMENT_3D ( 'NONE', #56, #142, #84 ) ;
#152 = PRODUCT_RELATED_PRODUCT_CATEGORY ( 'detail', '', ( #12 ) ) ;
#153 = SECURITY_CLASSIFICATION_LEVEL ( 'unclassified' ) ;
#154 = ADVANCED_FACE ( 'NONE', ( #14 ), #90, .T. ) ;
#155 = DATE_AND_TIME ( #73, #108 ) ;
#156 = ORIENTED_EDGE ( 'NONE', *, *, #62, .T. ) ;
#157 = APPROVAL_DATE_TIME ( #87, #140 ) ;
#158 = DATE_AND_TIME ( #54, #130 ) ;
#159 = APPROVAL_PERSON_ORGANIZATION ( #63, #77, #165 ) ;
#160 = AXIS2_PLACEMENT_3D ( 'NONE', #52, #42, #95 ) ;
#161 = CARTESIAN_POINT ( 'NONE',  ( 0.0000000000000000000, 0.0000000000000000000, 0.2000000000000000100 ) ) ;
#162 = PLANE ( 'NONE',  #98 ) ;
#163 = CLOSED_SHELL ( 'NONE', ( #102, #154, #34, #114 ) ) ;
#164 = CARTESIAN_POINT ( 'NONE',  ( 0.0000000000000000000, 0.0000000000000000000, 0.0000000000000000000 ) ) ;
#165 = APPROVAL_ROLE ( '' ) ;
#166 = DATE_TIME_ROLE ( 'classification_date' ) ;
#167 = VERTEX_POINT ( 'NONE', #116 ) ;
#168 = DIRECTION ( 'NONE',  ( -0.0000000000000000000, -0.0000000000000000000, -1.000000000000000000 ) ) ;
#169 = CIRCLE ( 'NONE', #117, 15.00000000000000000 ) ;
#170 = VERTEX_POINT ( 'NONE', #3 ) ;
#171 = COORDINATED_UNIVERSAL_TIME_OFFSET ( 5, 0, .BEHIND. ) ;
#172 = PERSON_AND_ORGANIZATION ( #135, #50 ) ;
#173 = COORDINATED_UNIVERSAL_TIME_OFFSET ( 5, 0, .BEHIND. ) ;
#174 = DIRECTION ( 'NONE',  ( 0.0000000000000000000, 0.0000000000000000000, 1.000000000000000000 ) ) ;
#175 = DIRECTION ( 'NONE',  ( 0.0000000000000000000, 0.0000000000000000000, 1.000000000000000000 ) ) ;
ENDSEC;
END-ISO-10303-21;
