ISO-10303-21;
HEADER;
FILE_DESCRIPTION (( 'STEP AP214' ),
    '1' );
FILE_NAME ('3252-E0W.STEP',
    '2009-12-21T16:55:48',
    ( ' ' ),
    ( ' ' ),
    'SwSTEP 2.0',
    'SolidWorks 2009',
    '' );
FILE_SCHEMA (( 'AUTOMOTIVE_DESIGN' ));
ENDSEC;

DATA;
#1 = ADVANCED_FACE ( 'NONE', ( #71 ), #52, .T. ) ;
#2 = EDGE_LOOP ( 'NONE', ( #59, #72, #21, #26 ) ) ;
#3 = ORIENTED_EDGE ( 'NONE', *, *, #86, .T. ) ;
#4 = ADVANCED_FACE ( 'NONE', ( #51 ), #128, .F. ) ;
#5 = EDGE_LOOP ( 'NONE', ( #6, #7 ) ) ;
#6 = ORIENTED_EDGE ( 'NONE', *, *, #76, .F. ) ;
#7 = ORIENTED_EDGE ( 'NONE', *, *, #14, .F. ) ;
#8 = CLOSED_SHELL ( 'NONE', ( #60, #1, #28, #15, #4 ) ) ;
#9 = ORIENTED_EDGE ( 'NONE', *, *, #14, .T. ) ;
#10 = ORIENTED_EDGE ( 'NONE', *, *, #18, .F. ) ;
#11 = EDGE_LOOP ( 'NONE', ( #10, #9, #3, #12, #13 ) ) ;
#12 = ORIENTED_EDGE ( 'NONE', *, *, #57, .F. ) ;
#13 = ORIENTED_EDGE ( 'NONE', *, *, #73, .F. ) ;
#14 = EDGE_CURVE ( 'NONE', #77, #61, #203, .T. ) ;
#15 = ADVANCED_FACE ( 'NONE', ( #204 ), #232, .T. ) ;
#16 = ORIENTED_EDGE ( 'NONE', *, *, #27, .T. ) ;
#17 = ORIENTED_EDGE ( 'NONE', *, *, #18, .T. ) ;
#18 = EDGE_CURVE ( 'NONE', #77, #78, #138, .T. ) ;
#19 = EDGE_LOOP ( 'NONE', ( #75, #17, #79, #64, #31 ) ) ;
#20 = MANIFOLD_SOLID_BREP ( 'NONE', #8 ) ;
#21 = ORIENTED_EDGE ( 'NONE', *, *, #22, .T. ) ;
#22 = EDGE_CURVE ( 'NONE', #74, #25, #98, .T. ) ;
#23 =( NAMED_UNIT ( * ) PLANE_ANGLE_UNIT ( ) SI_UNIT ( $, .RADIAN. ) );
#24 =( LENGTH_UNIT ( ) NAMED_UNIT ( * ) SI_UNIT ( .MILLI., .METRE. ) );
#25 = VERTEX_POINT ( 'NONE', #93 ) ;
#26 = ORIENTED_EDGE ( 'NONE', *, *, #27, .F. ) ;
#27 = EDGE_CURVE ( 'NONE', #63, #25, #116, .T. ) ;
#28 = ADVANCED_FACE ( 'NONE', ( #111 ), #195, .T. ) ;
#29 = UNCERTAINTY_MEASURE_WITH_UNIT (LENGTH_MEASURE( 1.000000000000000100E-005 ), #24, 'distance_accuracy_value', 'NONE');
#30 =( NAMED_UNIT ( * ) SI_UNIT ( $, .STERADIAN. ) SOLID_ANGLE_UNIT ( ) );
#31 = ORIENTED_EDGE ( 'NONE', *, *, #86, .F. ) ;
#32 =( GEOMETRIC_REPRESENTATION_CONTEXT ( 3 ) GLOBAL_UNCERTAINTY_ASSIGNED_CONTEXT ( ( #33 ) ) GLOBAL_UNIT_ASSIGNED_CONTEXT ( ( #36, #35, #34 ) ) REPRESENTATION_CONTEXT ( 'NONE', 'WORKASPACE' ) );
#33 = UNCERTAINTY_MEASURE_WITH_UNIT (LENGTH_MEASURE( 1.000000000000000100E-005 ), #36, 'distance_accuracy_value', 'NONE');
#34 =( NAMED_UNIT ( * ) SI_UNIT ( $, .STERADIAN. ) SOLID_ANGLE_UNIT ( ) );
#35 =( NAMED_UNIT ( * ) PLANE_ANGLE_UNIT ( ) SI_UNIT ( $, .RADIAN. ) );
#36 =( LENGTH_UNIT ( ) NAMED_UNIT ( * ) SI_UNIT ( .MILLI., .METRE. ) );
#37 = MECHANICAL_DESIGN_GEOMETRIC_PRESENTATION_REPRESENTATION (  '', ( #39 ), #32 ) ;
#38 = PRESENTATION_LAYER_ASSIGNMENT (  '', '', ( #39 ) ) ;
#39 = STYLED_ITEM ( 'NONE', ( #40 ), #4 ) ;
#40 = PRESENTATION_STYLE_ASSIGNMENT (( #41 ) ) ;
#41 = SURFACE_STYLE_USAGE ( .BOTH. , #42 ) ;
#42 = SURFACE_SIDE_STYLE ('',( #43 ) ) ;
#43 = SURFACE_STYLE_FILL_AREA ( #44 ) ;
#44 = FILL_AREA_STYLE ('',( #45 ) ) ;
#45 = FILL_AREA_STYLE_COLOUR ( '', #50 ) ;
#46 = DIRECTION ( 'NONE',  ( 0.0000000000000000000, 1.000000000000000000, 0.0000000000000000000 ) ) ;
#47 = DIRECTION ( 'NONE',  ( -1.000000000000000000, 0.0000000000000000000, 0.0000000000000000000 ) ) ;
#48 = CARTESIAN_POINT ( 'NONE',  ( 0.0000000000000000000, 0.0000000000000000000, -49.70499999999999800 ) ) ;
#49 = AXIS2_PLACEMENT_3D ( 'NONE', #48, #47, #46 ) ;
#50 = COLOUR_RGB ( '',0.9568627450980391500, 0.9490196078431372100, 0.9607843137254902200 ) ;
#51 = FACE_OUTER_BOUND ( 'NONE', #5, .T. ) ;
#52 = SPHERICAL_SURFACE ( 'NONE', #49, 51.50000000000000700 ) ;
#53 =( GEOMETRIC_REPRESENTATION_CONTEXT ( 3 ) GLOBAL_UNCERTAINTY_ASSIGNED_CONTEXT ( ( #29 ) ) GLOBAL_UNIT_ASSIGNED_CONTEXT ( ( #24, #23, #30 ) ) REPRESENTATION_CONTEXT ( 'NONE', 'WORKASPACE' ) );
#54 = EDGE_LOOP ( 'NONE', ( #55, #56, #58, #16 ) ) ;
#55 = ORIENTED_EDGE ( 'NONE', *, *, #22, .F. ) ;
#56 = ORIENTED_EDGE ( 'NONE', *, *, #57, .T. ) ;
#57 = EDGE_CURVE ( 'NONE', #74, #66, #194, .T. ) ;
#58 = ORIENTED_EDGE ( 'NONE', *, *, #65, .T. ) ;
#59 = ORIENTED_EDGE ( 'NONE', *, *, #62, .T. ) ;
#60 = ADVANCED_FACE ( 'NONE', ( #184 ), #125, .T. ) ;
#61 = VERTEX_POINT ( 'NONE', #247 ) ;
#62 = EDGE_CURVE ( 'NONE', #63, #78, #244, .T. ) ;
#63 = VERTEX_POINT ( 'NONE', #239 ) ;
#64 = ORIENTED_EDGE ( 'NONE', *, *, #65, .F. ) ;
#65 = EDGE_CURVE ( 'NONE', #66, #63, #238, .T. ) ;
#66 = VERTEX_POINT ( 'NONE', #233 ) ;
#67 = SURFACE_STYLE_FILL_AREA ( #68 ) ;
#68 = FILL_AREA_STYLE ('',( #69 ) ) ;
#69 = FILL_AREA_STYLE_COLOUR ( '', #70 ) ;
#70 = COLOUR_RGB ( '',0.9568627450980391500, 0.9490196078431372100, 0.9607843137254902200 ) ;
#71 = FACE_OUTER_BOUND ( 'NONE', #2, .T. ) ;
#72 = ORIENTED_EDGE ( 'NONE', *, *, #73, .T. ) ;
#73 = EDGE_CURVE ( 'NONE', #78, #74, #226, .T. ) ;
#74 = VERTEX_POINT ( 'NONE', #221 ) ;
#75 = ORIENTED_EDGE ( 'NONE', *, *, #76, .T. ) ;
#76 = EDGE_CURVE ( 'NONE', #61, #77, #220, .T. ) ;
#77 = VERTEX_POINT ( 'NONE', #215 ) ;
#78 = VERTEX_POINT ( 'NONE', #214 ) ;
#79 = ORIENTED_EDGE ( 'NONE', *, *, #62, .F. ) ;
#80 = MECHANICAL_DESIGN_GEOMETRIC_PRESENTATION_REPRESENTATION (  '', ( #82 ), #53 ) ;
#81 = PRESENTATION_LAYER_ASSIGNMENT (  '', '', ( #82 ) ) ;
#82 = STYLED_ITEM ( 'NONE', ( #83 ), #1 ) ;
#83 = PRESENTATION_STYLE_ASSIGNMENT (( #84 ) ) ;
#84 = SURFACE_STYLE_USAGE ( .BOTH. , #85 ) ;
#85 = SURFACE_SIDE_STYLE ('',( #67 ) ) ;
#86 = EDGE_CURVE ( 'NONE', #61, #66, #213, .T. ) ;
#87 = UNCERTAINTY_MEASURE_WITH_UNIT (LENGTH_MEASURE( 1.000000000000000100E-005 ), #90, 'distance_accuracy_value', 'NONE');
#88 =( NAMED_UNIT ( * ) SI_UNIT ( $, .STERADIAN. ) SOLID_ANGLE_UNIT ( ) );
#89 =( NAMED_UNIT ( * ) PLANE_ANGLE_UNIT ( ) SI_UNIT ( $, .RADIAN. ) );
#90 =( LENGTH_UNIT ( ) NAMED_UNIT ( * ) SI_UNIT ( .MILLI., .METRE. ) );
#91 = MECHANICAL_DESIGN_GEOMETRIC_PRESENTATION_REPRESENTATION (  '', ( #104 ), #196 ) ;
#92 = PRESENTATION_LAYER_ASSIGNMENT (  '', '', ( #104 ) ) ;
#93 = CARTESIAN_POINT ( 'NONE',  ( 0.0000000000000000000, 3.153361361092621800E-015, 1.795000000000004800 ) ) ;
#94 = DIRECTION ( 'NONE',  ( -1.224606353822377300E-016, -1.000000000000000000, 0.0000000000000000000 ) ) ;
#95 = DIRECTION ( 'NONE',  ( -1.000000000000000000, 1.224606353822377300E-016, 0.0000000000000000000 ) ) ;
#96 = CARTESIAN_POINT ( 'NONE',  ( 0.0000000000000000000, 0.0000000000000000000, -49.70499999999999800 ) ) ;
#97 = AXIS2_PLACEMENT_3D ( 'NONE', #96, #95, #94 ) ;
#98 = CIRCLE ( 'NONE', #97, 51.50000000000000700 ) ;
#99 =( GEOMETRIC_REPRESENTATION_CONTEXT ( 3 ) GLOBAL_UNCERTAINTY_ASSIGNED_CONTEXT ( ( #118 ) ) GLOBAL_UNIT_ASSIGNED_CONTEXT ( ( #100, #120, #119 ) ) REPRESENTATION_CONTEXT ( 'NONE', 'WORKASPACE' ) );
#100 =( LENGTH_UNIT ( ) NAMED_UNIT ( * ) SI_UNIT ( .MILLI., .METRE. ) );
#101 = MECHANICAL_DESIGN_GEOMETRIC_PRESENTATION_REPRESENTATION (  '', ( #103 ), #99 ) ;
#102 = PRESENTATION_LAYER_ASSIGNMENT (  '', '', ( #103 ) ) ;
#103 = STYLED_ITEM ( 'NONE', ( #131 ), #20 ) ;
#104 = STYLED_ITEM ( 'NONE', ( #105 ), #28 ) ;
#105 = PRESENTATION_STYLE_ASSIGNMENT (( #106 ) ) ;
#106 = SURFACE_STYLE_USAGE ( .BOTH. , #107 ) ;
#107 = SURFACE_SIDE_STYLE ('',( #108 ) ) ;
#108 = SURFACE_STYLE_FILL_AREA ( #109 ) ;
#109 = FILL_AREA_STYLE ('',( #117 ) ) ;
#110 = COLOUR_RGB ( '',0.9568627450980391500, 0.9490196078431372100, 0.9607843137254902200 ) ;
#111 = FACE_OUTER_BOUND ( 'NONE', #54, .T. ) ;
#112 = DIRECTION ( 'NONE',  ( 0.0000000000000000000, 0.0000000000000000000, -1.000000000000000000 ) ) ;
#113 = DIRECTION ( 'NONE',  ( 1.000000000000000000, 0.0000000000000000000, 0.0000000000000000000 ) ) ;
#114 = CARTESIAN_POINT ( 'NONE',  ( 0.0000000000000000000, 0.0000000000000000000, -49.70499999999999800 ) ) ;
#115 = AXIS2_PLACEMENT_3D ( 'NONE', #114, #113, #112 ) ;
#116 = CIRCLE ( 'NONE', #115, 51.50000000000000700 ) ;
#117 = FILL_AREA_STYLE_COLOUR ( '', #110 ) ;
#118 = UNCERTAINTY_MEASURE_WITH_UNIT (LENGTH_MEASURE( 1.000000000000000100E-005 ), #100, 'distance_accuracy_value', 'NONE');
#119 =( NAMED_UNIT ( * ) SI_UNIT ( $, .STERADIAN. ) SOLID_ANGLE_UNIT ( ) );
#120 =( NAMED_UNIT ( * ) PLANE_ANGLE_UNIT ( ) SI_UNIT ( $, .RADIAN. ) );
#121 = CARTESIAN_POINT ( 'NONE',  ( 0.0000000000000000000, 0.0000000000000000000, -1.794999999999999700 ) ) ;
#122 = DIRECTION ( 'NONE',  ( 1.000000000000000000, 0.0000000000000000000, 0.0000000000000000000 ) ) ;
#123 = CARTESIAN_POINT ( 'NONE',  ( 0.0000000000000000000, 0.0000000000000000000, 4.308132045400366600 ) ) ;
#124 = AXIS2_PLACEMENT_3D ( 'NONE', #123, #246, #245 ) ;
#125 = CYLINDRICAL_SURFACE ( 'NONE', #124, 12.69999999999999900 ) ;
#126 =( GEOMETRIC_REPRESENTATION_CONTEXT ( 3 ) GLOBAL_UNCERTAINTY_ASSIGNED_CONTEXT ( ( #171 ) ) GLOBAL_UNIT_ASSIGNED_CONTEXT ( ( #174, #173, #172 ) ) REPRESENTATION_CONTEXT ( 'NONE', 'WORKASPACE' ) );
#127 =( GEOMETRIC_REPRESENTATION_CONTEXT ( 3 ) GLOBAL_UNCERTAINTY_ASSIGNED_CONTEXT ( ( #228 ) ) GLOBAL_UNIT_ASSIGNED_CONTEXT ( ( #248, #253, #229 ) ) REPRESENTATION_CONTEXT ( 'NONE', 'WORKASPACE' ) );
#128 = PLANE ( 'NONE',  #227 ) ;
#129 = FILL_AREA_STYLE ('',( #141 ) ) ;
#130 = COLOUR_RGB ( '',0.7960784313725489700, 0.8235294117647058400, 0.9372549019607843100 ) ;
#131 = PRESENTATION_STYLE_ASSIGNMENT (( #132 ) ) ;
#132 = SURFACE_STYLE_USAGE ( .BOTH. , #133 ) ;
#133 = SURFACE_SIDE_STYLE ('',( #134 ) ) ;
#134 = SURFACE_STYLE_FILL_AREA ( #129 ) ;
#135 = DIRECTION ( 'NONE',  ( -0.0000000000000000000, -0.0000000000000000000, 1.000000000000000000 ) ) ;
#136 = VECTOR ( 'NONE', #135, 1000.000000000000000 ) ;
#137 = CARTESIAN_POINT ( 'NONE',  ( -12.69999999999999900, 1.555250069354419100E-015, 4.308132045400366600 ) ) ;
#138 = LINE ( 'NONE', #137, #136 ) ;
#139 = DIRECTION ( 'NONE',  ( 1.000000000000000000, 0.0000000000000000000, 0.0000000000000000000 ) ) ;
#140 = DIRECTION ( 'NONE',  ( -0.0000000000000000000, -0.0000000000000000000, 1.000000000000000000 ) ) ;
#141 = FILL_AREA_STYLE_COLOUR ( '', #130 ) ;
#142 = APPLICATION_PROTOCOL_DEFINITION ( 'draft international standard', 'automotive_design', 1998, #143 ) ;
#143 = APPLICATION_CONTEXT ( 'automotive_design' ) ;
#144 = PRODUCT ( '3252-E0W', '3252-E0W', '', ( #145 ) ) ;
#145 = PRODUCT_CONTEXT ( 'NONE', #147, 'mechanical' ) ;
#146 = APPLICATION_PROTOCOL_DEFINITION ( 'draft international standard', 'automotive_design', 1998, #147 ) ;
#147 = APPLICATION_CONTEXT ( 'automotive_design' ) ;
#148 =( GEOMETRIC_REPRESENTATION_CONTEXT ( 3 ) GLOBAL_UNCERTAINTY_ASSIGNED_CONTEXT ( ( #149 ) ) GLOBAL_UNIT_ASSIGNED_CONTEXT ( ( #152, #151, #150 ) ) REPRESENTATION_CONTEXT ( 'NONE', 'WORKASPACE' ) );
#149 = UNCERTAINTY_MEASURE_WITH_UNIT (LENGTH_MEASURE( 1.000000000000000100E-005 ), #152, 'distance_accuracy_value', 'NONE');
#150 =( NAMED_UNIT ( * ) SI_UNIT ( $, .STERADIAN. ) SOLID_ANGLE_UNIT ( ) );
#151 =( NAMED_UNIT ( * ) PLANE_ANGLE_UNIT ( ) SI_UNIT ( $, .RADIAN. ) );
#152 =( LENGTH_UNIT ( ) NAMED_UNIT ( * ) SI_UNIT ( .MILLI., .METRE. ) );
#153 = MECHANICAL_DESIGN_GEOMETRIC_PRESENTATION_REPRESENTATION (  '', ( #155 ), #148 ) ;
#154 = PRESENTATION_LAYER_ASSIGNMENT (  '', '', ( #155 ) ) ;
#155 = STYLED_ITEM ( 'NONE', ( #156 ), #163 ) ;
#156 = PRESENTATION_STYLE_ASSIGNMENT (( #157 ) ) ;
#157 = SURFACE_STYLE_USAGE ( .BOTH. , #158 ) ;
#158 = SURFACE_SIDE_STYLE ('',( #159 ) ) ;
#159 = SURFACE_STYLE_FILL_AREA ( #160 ) ;
#160 = FILL_AREA_STYLE ('',( #161 ) ) ;
#161 = FILL_AREA_STYLE_COLOUR ( '', #162 ) ;
#162 = COLOUR_RGB ( '',0.7960784313725489700, 0.8235294117647058400, 0.9372549019607843100 ) ;
#163 = ADVANCED_BREP_SHAPE_REPRESENTATION ( '3252-E0W', ( #20, #209 ), #164 ) ;
#164 =( GEOMETRIC_REPRESENTATION_CONTEXT ( 3 ) GLOBAL_UNCERTAINTY_ASSIGNED_CONTEXT ( ( #205 ) ) GLOBAL_UNIT_ASSIGNED_CONTEXT ( ( #208, #207, #206 ) ) REPRESENTATION_CONTEXT ( 'NONE', 'WORKASPACE' ) );
#165 = SURFACE_STYLE_USAGE ( .BOTH. , #166 ) ;
#166 = SURFACE_SIDE_STYLE ('',( #167 ) ) ;
#167 = SURFACE_STYLE_FILL_AREA ( #168 ) ;
#168 = FILL_AREA_STYLE ('',( #169 ) ) ;
#169 = FILL_AREA_STYLE_COLOUR ( '', #170 ) ;
#170 = COLOUR_RGB ( '',0.9568627450980391500, 0.9490196078431372100, 0.9607843137254902200 ) ;
#171 = UNCERTAINTY_MEASURE_WITH_UNIT (LENGTH_MEASURE( 1.000000000000000100E-005 ), #174, 'distance_accuracy_value', 'NONE');
#172 =( NAMED_UNIT ( * ) SI_UNIT ( $, .STERADIAN. ) SOLID_ANGLE_UNIT ( ) );
#173 =( NAMED_UNIT ( * ) PLANE_ANGLE_UNIT ( ) SI_UNIT ( $, .RADIAN. ) );
#174 =( LENGTH_UNIT ( ) NAMED_UNIT ( * ) SI_UNIT ( .MILLI., .METRE. ) );
#175 = MECHANICAL_DESIGN_GEOMETRIC_PRESENTATION_REPRESENTATION (  '', ( #177 ), #126 ) ;
#176 = PRESENTATION_LAYER_ASSIGNMENT (  '', '', ( #177 ) ) ;
#177 = STYLED_ITEM ( 'NONE', ( #178 ), #60 ) ;
#178 = PRESENTATION_STYLE_ASSIGNMENT (( #179 ) ) ;
#179 = SURFACE_STYLE_USAGE ( .BOTH. , #180 ) ;
#180 = SURFACE_SIDE_STYLE ('',( #181 ) ) ;
#181 = SURFACE_STYLE_FILL_AREA ( #182 ) ;
#182 = FILL_AREA_STYLE ('',( #189 ) ) ;
#183 = COLOUR_RGB ( '',0.9568627450980391500, 0.9490196078431372100, 0.9607843137254902200 ) ;
#184 = FACE_OUTER_BOUND ( 'NONE', #19, .T. ) ;
#185 = DIRECTION ( 'NONE',  ( 1.000000000000000000, 0.0000000000000000000, 0.0000000000000000000 ) ) ;
#186 = DIRECTION ( 'NONE',  ( -0.0000000000000000000, -0.0000000000000000000, 1.000000000000000000 ) ) ;
#187 = CARTESIAN_POINT ( 'NONE',  ( 0.0000000000000000000, 0.0000000000000000000, 0.2045181303125817900 ) ) ;
#188 = AXIS2_PLACEMENT_3D ( 'NONE', #187, #186, #185 ) ;
#189 = FILL_AREA_STYLE_COLOUR ( '', #183 ) ;
#190 = DIRECTION ( 'NONE',  ( 0.0000000000000000000, 1.000000000000000000, 0.0000000000000000000 ) ) ;
#191 = DIRECTION ( 'NONE',  ( -1.000000000000000000, 0.0000000000000000000, 0.0000000000000000000 ) ) ;
#192 = CARTESIAN_POINT ( 'NONE',  ( 0.0000000000000000000, 0.0000000000000000000, -49.70499999999999800 ) ) ;
#193 = AXIS2_PLACEMENT_3D ( 'NONE', #192, #191, #190 ) ;
#194 = CIRCLE ( 'NONE', #188, 12.69999999999999800 ) ;
#195 = SPHERICAL_SURFACE ( 'NONE', #193, 51.50000000000000700 ) ;
#196 =( GEOMETRIC_REPRESENTATION_CONTEXT ( 3 ) GLOBAL_UNCERTAINTY_ASSIGNED_CONTEXT ( ( #87 ) ) GLOBAL_UNIT_ASSIGNED_CONTEXT ( ( #90, #89, #88 ) ) REPRESENTATION_CONTEXT ( 'NONE', 'WORKASPACE' ) );
#197 = DIRECTION ( 'NONE',  ( 1.000000000000000000, 0.0000000000000000000, 0.0000000000000000000 ) ) ;
#198 = DIRECTION ( 'NONE',  ( 0.0000000000000000000, 0.0000000000000000000, 1.000000000000000000 ) ) ;
#199 = CARTESIAN_POINT ( 'NONE',  ( 0.0000000000000000000, 0.0000000000000000000, 0.0000000000000000000 ) ) ;
#200 = DIRECTION ( 'NONE',  ( 1.000000000000000000, 0.0000000000000000000, 0.0000000000000000000 ) ) ;
#201 = DIRECTION ( 'NONE',  ( -0.0000000000000000000, -0.0000000000000000000, 1.000000000000000000 ) ) ;
#202 = AXIS2_PLACEMENT_3D ( 'NONE', #121, #201, #200 ) ;
#203 = CIRCLE ( 'NONE', #202, 12.69999999999999900 ) ;
#204 = FACE_OUTER_BOUND ( 'NONE', #11, .T. ) ;
#205 = UNCERTAINTY_MEASURE_WITH_UNIT (LENGTH_MEASURE( 1.000000000000000100E-005 ), #208, 'distance_accuracy_value', 'NONE');
#206 =( NAMED_UNIT ( * ) SI_UNIT ( $, .STERADIAN. ) SOLID_ANGLE_UNIT ( ) );
#207 =( NAMED_UNIT ( * ) PLANE_ANGLE_UNIT ( ) SI_UNIT ( $, .RADIAN. ) );
#208 =( LENGTH_UNIT ( ) NAMED_UNIT ( * ) SI_UNIT ( .MILLI., .METRE. ) );
#209 = AXIS2_PLACEMENT_3D ( 'NONE', #199, #198, #197 ) ;
#210 = DIRECTION ( 'NONE',  ( -0.0000000000000000000, -0.0000000000000000000, 1.000000000000000000 ) ) ;
#211 = VECTOR ( 'NONE', #210, 1000.000000000000000 ) ;
#212 = CARTESIAN_POINT ( 'NONE',  ( 12.69999999999999900, 0.0000000000000000000, 4.308132045400366600 ) ) ;
#213 = LINE ( 'NONE', #212, #211 ) ;
#214 = CARTESIAN_POINT ( 'NONE',  ( -12.69999999999999800, 1.555250069354418900E-015, 0.2045181303125817900 ) ) ;
#215 = CARTESIAN_POINT ( 'NONE',  ( -12.69999999999999900, 1.555250069354419100E-015, -1.794999999999999700 ) ) ;
#216 = DIRECTION ( 'NONE',  ( 1.000000000000000000, 0.0000000000000000000, 0.0000000000000000000 ) ) ;
#217 = DIRECTION ( 'NONE',  ( -0.0000000000000000000, -0.0000000000000000000, 1.000000000000000000 ) ) ;
#218 = CARTESIAN_POINT ( 'NONE',  ( 0.0000000000000000000, 0.0000000000000000000, -1.794999999999999700 ) ) ;
#219 = AXIS2_PLACEMENT_3D ( 'NONE', #218, #217, #216 ) ;
#220 = CIRCLE ( 'NONE', #219, 12.69999999999999900 ) ;
#221 = CARTESIAN_POINT ( 'NONE',  ( -1.555250069354420500E-015, -12.70000000000001000, 0.2045181303125813700 ) ) ;
#222 = DIRECTION ( 'NONE',  ( 1.000000000000000000, 0.0000000000000000000, 0.0000000000000000000 ) ) ;
#223 = DIRECTION ( 'NONE',  ( -0.0000000000000000000, -0.0000000000000000000, 1.000000000000000000 ) ) ;
#224 = CARTESIAN_POINT ( 'NONE',  ( 0.0000000000000000000, 0.0000000000000000000, 0.2045181303125817900 ) ) ;
#225 = AXIS2_PLACEMENT_3D ( 'NONE', #224, #223, #222 ) ;
#226 = CIRCLE ( 'NONE', #225, 12.69999999999999800 ) ;
#227 = AXIS2_PLACEMENT_3D ( 'NONE', #255, #254, #122 ) ;
#228 = UNCERTAINTY_MEASURE_WITH_UNIT (LENGTH_MEASURE( 1.000000000000000100E-005 ), #248, 'distance_accuracy_value', 'NONE');
#229 =( NAMED_UNIT ( * ) SI_UNIT ( $, .STERADIAN. ) SOLID_ANGLE_UNIT ( ) );
#230 = CARTESIAN_POINT ( 'NONE',  ( 0.0000000000000000000, 0.0000000000000000000, 4.308132045400366600 ) ) ;
#231 = AXIS2_PLACEMENT_3D ( 'NONE', #230, #140, #139 ) ;
#232 = CYLINDRICAL_SURFACE ( 'NONE', #231, 12.69999999999999900 ) ;
#233 = CARTESIAN_POINT ( 'NONE',  ( 12.69999999999999800, 0.0000000000000000000, 0.2045181303125817900 ) ) ;
#234 = DIRECTION ( 'NONE',  ( 1.000000000000000000, 0.0000000000000000000, 0.0000000000000000000 ) ) ;
#235 = DIRECTION ( 'NONE',  ( -0.0000000000000000000, -0.0000000000000000000, 1.000000000000000000 ) ) ;
#236 = CARTESIAN_POINT ( 'NONE',  ( 0.0000000000000000000, 0.0000000000000000000, 0.2045181303125817900 ) ) ;
#237 = AXIS2_PLACEMENT_3D ( 'NONE', #236, #235, #234 ) ;
#238 = CIRCLE ( 'NONE', #237, 12.69999999999999800 ) ;
#239 = CARTESIAN_POINT ( 'NONE',  ( 0.0000000000000000000, 12.70000000000001000, 0.2045181303125813700 ) ) ;
#240 = DIRECTION ( 'NONE',  ( 1.000000000000000000, 0.0000000000000000000, 0.0000000000000000000 ) ) ;
#241 = DIRECTION ( 'NONE',  ( -0.0000000000000000000, -0.0000000000000000000, 1.000000000000000000 ) ) ;
#242 = CARTESIAN_POINT ( 'NONE',  ( 0.0000000000000000000, 0.0000000000000000000, 0.2045181303125817900 ) ) ;
#243 = AXIS2_PLACEMENT_3D ( 'NONE', #242, #241, #240 ) ;
#244 = CIRCLE ( 'NONE', #243, 12.69999999999999800 ) ;
#245 = DIRECTION ( 'NONE',  ( 1.000000000000000000, 0.0000000000000000000, 0.0000000000000000000 ) ) ;
#246 = DIRECTION ( 'NONE',  ( -0.0000000000000000000, -0.0000000000000000000, 1.000000000000000000 ) ) ;
#247 = CARTESIAN_POINT ( 'NONE',  ( 12.69999999999999900, 0.0000000000000000000, -1.794999999999999700 ) ) ;
#248 =( LENGTH_UNIT ( ) NAMED_UNIT ( * ) SI_UNIT ( .MILLI., .METRE. ) );
#249 = MECHANICAL_DESIGN_GEOMETRIC_PRESENTATION_REPRESENTATION (  '', ( #251 ), #127 ) ;
#250 = PRESENTATION_LAYER_ASSIGNMENT (  '', '', ( #251 ) ) ;
#251 = STYLED_ITEM ( 'NONE', ( #252 ), #15 ) ;
#252 = PRESENTATION_STYLE_ASSIGNMENT (( #165 ) ) ;
#253 =( NAMED_UNIT ( * ) PLANE_ANGLE_UNIT ( ) SI_UNIT ( $, .RADIAN. ) );
#254 = DIRECTION ( 'NONE',  ( 0.0000000000000000000, -0.0000000000000000000, 1.000000000000000000 ) ) ;
#255 = CARTESIAN_POINT ( 'NONE',  ( 0.0000000000000000000, 6.594723013408496800E-016, -1.795000000000000200 ) ) ;
#256 = PRODUCT_DEFINITION_FORMATION_WITH_SPECIFIED_SOURCE ( 'ANY', '', #144, .NOT_KNOWN. ) ;
#257 = PRODUCT_DEFINITION_SHAPE ( 'NONE', 'NONE',  #258 ) ;
#258 = PRODUCT_DEFINITION ( 'UNKNOWN', '', #256, #259 ) ;
#259 = PRODUCT_DEFINITION_CONTEXT ( 'detailed design', #143, 'design' ) ;
#260 = PRODUCT_RELATED_PRODUCT_CATEGORY ( 'part', '', ( #144 ) ) ;
#261 = SHAPE_DEFINITION_REPRESENTATION ( #257, #163 ) ;
ENDSEC;
END-ISO-10303-21;
