ISO-10303-21;
HEADER;
FILE_DESCRIPTION (( 'STEP AP203' ),
    '1' );
FILE_NAME ('Web Model 46609_45326.step',
    '2017-04-10T17:57:06',
    ( '' ),
    ( '' ),
    'SwSTEP 2.0',
    'SolidWorks 2016',
    '' );
FILE_SCHEMA (( 'CONFIG_CONTROL_DESIGN' ));
ENDSEC;

DATA;
#1 = ORIENTED_EDGE ( 'NONE', *, *, #69, .T. ) ;
#2 = CC_DESIGN_APPROVAL ( #93, ( #232 ) ) ;
#3 = SHAPE_DEFINITION_REPRESENTATION ( #71, #70 ) ;
#4 = APPROVAL_PERSON_ORGANIZATION ( #56, #209, #177 ) ;
#5 = VERTEX_POINT ( 'NONE', #211 ) ;
#6 = LINE ( 'NONE', #60, #180 ) ;
#7 = MECHANICAL_CONTEXT ( 'NONE', #135, 'mechanical' ) ;
#8 = CC_DESIGN_PERSON_AND_ORGANIZATION_ASSIGNMENT ( #131, #14, ( #224 ) ) ;
#9 = VECTOR ( 'NONE', #197, 1000.000000000000000 ) ;
#10 = FACE_OUTER_BOUND ( 'NONE', #236, .T. ) ;
#11 = AXIS2_PLACEMENT_3D ( 'NONE', #221, #120, #175 ) ;
#12 = LOCAL_TIME ( 13, 57, 6.000000000000000000, #24 ) ;
#13 = VECTOR ( 'NONE', #176, 1000.000000000000000 ) ;
#14 = PERSON_AND_ORGANIZATION_ROLE ( 'creator' ) ;
#15 = ORIENTED_EDGE ( 'NONE', *, *, #94, .T. ) ;
#16 = CC_DESIGN_PERSON_AND_ORGANIZATION_ASSIGNMENT ( #208, #115, ( #232 ) ) ;
#17 = VERTEX_POINT ( 'NONE', #201 ) ;
#18 = VERTEX_POINT ( 'NONE', #163 ) ;
#19 = APPROVAL_DATE_TIME ( #103, #93 ) ;
#20 = UNCERTAINTY_MEASURE_WITH_UNIT (LENGTH_MEASURE( 1.000000000000000100E-005 ), #185, 'distance_accuracy_value', 'NONE');
#21 = ORIENTED_EDGE ( 'NONE', *, *, #25, .F. ) ;
#22 = CARTESIAN_POINT ( 'NONE',  ( -17.50000000000000000, -17.50000000000000000, 0.5000000000000000000 ) ) ;
#23 = ADVANCED_FACE ( 'NONE', ( #218 ), #74, .F. ) ;
#24 = COORDINATED_UNIVERSAL_TIME_OFFSET ( 5, 0, .BEHIND. ) ;
#25 = EDGE_CURVE ( 'NONE', #105, #5, #107, .T. ) ;
#26 = APPROVAL_DATE_TIME ( #61, #209 ) ;
#27 = CARTESIAN_POINT ( 'NONE',  ( 17.50000000000000000, 17.50000000000000000, 0.5000000000000000000 ) ) ;
#28 = APPROVAL_STATUS ( 'not_yet_approved' ) ;
#29 = COORDINATED_UNIVERSAL_TIME_OFFSET ( 5, 0, .BEHIND. ) ;
#30 = PRODUCT_RELATED_PRODUCT_CATEGORY ( 'detail', '', ( #132 ) ) ;
#31 = CARTESIAN_POINT ( 'NONE',  ( 17.50000000000000000, -17.50000000000000000, -0.5000000000000000000 ) ) ;
#32 = DIRECTION ( 'NONE',  ( 1.000000000000000000, 0.0000000000000000000, 0.0000000000000000000 ) ) ;
#33 = VERTEX_POINT ( 'NONE', #171 ) ;
#34 = CARTESIAN_POINT ( 'NONE',  ( 0.0000000000000000000, 0.0000000000000000000, -0.5000000000000000000 ) ) ;
#35 = AXIS2_PLACEMENT_3D ( 'NONE', #119, #184, #63 ) ;
#36 = DATE_TIME_ROLE ( 'creation_date' ) ;
#37 = VECTOR ( 'NONE', #141, 1000.000000000000000 ) ;
#38 = DIRECTION ( 'NONE',  ( -0.0000000000000000000, 1.000000000000000000, -0.0000000000000000000 ) ) ;
#39 = APPROVAL_PERSON_ORGANIZATION ( #166, #167, #231 ) ;
#40 = VECTOR ( 'NONE', #113, 1000.000000000000000 ) ;
#41 = VECTOR ( 'NONE', #53, 1000.000000000000000 ) ;
#42 = LOCAL_TIME ( 13, 57, 6.000000000000000000, #55 ) ;
#43 = VECTOR ( 'NONE', #178, 1000.000000000000000 ) ;
#44 = LINE ( 'NONE', #27, #41 ) ;
#45 = PERSON_AND_ORGANIZATION_ROLE ( 'design_supplier' ) ;
#46 = ORIENTED_EDGE ( 'NONE', *, *, #69, .F. ) ;
#47 = CALENDAR_DATE ( 2017, 10, 4 ) ;
#48 = COORDINATED_UNIVERSAL_TIME_OFFSET ( 5, 0, .BEHIND. ) ;
#49 = CALENDAR_DATE ( 2017, 10, 4 ) ;
#50 = AXIS2_PLACEMENT_3D ( 'NONE', #162, #138, #219 ) ;
#51 = DIRECTION ( 'NONE',  ( 0.0000000000000000000, 1.000000000000000000, 0.0000000000000000000 ) ) ;
#52 = ORIENTED_EDGE ( 'NONE', *, *, #25, .T. ) ;
#53 = DIRECTION ( 'NONE',  ( -0.0000000000000000000, 1.000000000000000000, -0.0000000000000000000 ) ) ;
#54 = ADVANCED_FACE ( 'NONE', ( #10 ), #214, .F. ) ;
#55 = COORDINATED_UNIVERSAL_TIME_OFFSET ( 5, 0, .BEHIND. ) ;
#56 = PERSON_AND_ORGANIZATION ( #226, #200 ) ;
#57 =( NAMED_UNIT ( * ) SI_UNIT ( $, .STERADIAN. ) SOLID_ANGLE_UNIT ( ) );
#58 = DIRECTION ( 'NONE',  ( -0.0000000000000000000, 0.0000000000000000000, 1.000000000000000000 ) ) ;
#59 = ORIENTED_EDGE ( 'NONE', *, *, #129, .T. ) ;
#60 = CARTESIAN_POINT ( 'NONE',  ( 17.50000000000000000, 17.50000000000000000, 0.5000000000000000000 ) ) ;
#61 = DATE_AND_TIME ( #67, #84 ) ;
#62 = CC_DESIGN_SECURITY_CLASSIFICATION ( #232, ( #224 ) ) ;
#63 = DIRECTION ( 'NONE',  ( 1.000000000000000000, 0.0000000000000000000, 0.0000000000000000000 ) ) ;
#64 = DIRECTION ( 'NONE',  ( 1.000000000000000000, 0.0000000000000000000, -0.0000000000000000000 ) ) ;
#65 = VECTOR ( 'NONE', #212, 1000.000000000000000 ) ;
#66 = ORIENTED_EDGE ( 'NONE', *, *, #129, .F. ) ;
#67 = CALENDAR_DATE ( 2017, 10, 4 ) ;
#68 = ORIENTED_EDGE ( 'NONE', *, *, #94, .F. ) ;
#69 = EDGE_CURVE ( 'NONE', #18, #220, #121, .T. ) ;
#70 = ADVANCED_BREP_SHAPE_REPRESENTATION ( 'Web Model 46609_45326', ( #88, #35 ), #157 ) ;
#71 = PRODUCT_DEFINITION_SHAPE ( 'NONE', 'NONE',  #217 ) ;
#72 = ORIENTED_EDGE ( 'NONE', *, *, #117, .F. ) ;
#73 = VECTOR ( 'NONE', #202, 1000.000000000000000 ) ;
#74 = PLANE ( 'NONE',  #11 ) ;
#75 = CC_DESIGN_DATE_AND_TIME_ASSIGNMENT ( #187, #36, ( #217 ) ) ;
#76 = DIRECTION ( 'NONE',  ( 1.000000000000000000, 0.0000000000000000000, 0.0000000000000000000 ) ) ;
#77 = LINE ( 'NONE', #204, #9 ) ;
#78 = EDGE_CURVE ( 'NONE', #220, #92, #139, .T. ) ;
#79 = ORIENTED_EDGE ( 'NONE', *, *, #78, .F. ) ;
#80 = LOCAL_TIME ( 13, 57, 6.000000000000000000, #190 ) ;
#81 = AXIS2_PLACEMENT_3D ( 'NONE', #22, #51, #147 ) ;
#82 = LINE ( 'NONE', #128, #73 ) ;
#83 = CC_DESIGN_DATE_AND_TIME_ASSIGNMENT ( #98, #228, ( #232 ) ) ;
#84 = LOCAL_TIME ( 13, 57, 6.000000000000000000, #29 ) ;
#85 = APPLICATION_PROTOCOL_DEFINITION ( 'international standard', 'config_control_design', 1994, #207 ) ;
#86 = ORIENTED_EDGE ( 'NONE', *, *, #118, .T. ) ;
#87 = APPROVAL_STATUS ( 'not_yet_approved' ) ;
#88 = MANIFOLD_SOLID_BREP ( 'Boss-Extrude1', #188 ) ;
#89 = ADVANCED_FACE ( 'NONE', ( #97 ), #222, .F. ) ;
#90 = CARTESIAN_POINT ( 'NONE',  ( -17.50000000000000000, 17.50000000000000000, 0.5000000000000000000 ) ) ;
#91 =( NAMED_UNIT ( * ) PLANE_ANGLE_UNIT ( ) SI_UNIT ( $, .RADIAN. ) );
#92 = VERTEX_POINT ( 'NONE', #31 ) ;
#93 = APPROVAL ( #28, 'UNSPECIFIED' ) ;
#94 = EDGE_CURVE ( 'NONE', #5, #17, #82, .T. ) ;
#95 = ORIENTED_EDGE ( 'NONE', *, *, #140, .F. ) ;
#96 = CARTESIAN_POINT ( 'NONE',  ( -17.50000000000000000, 17.50000000000000000, 0.5000000000000000000 ) ) ;
#97 = FACE_OUTER_BOUND ( 'NONE', #172, .T. ) ;
#98 = DATE_AND_TIME ( #49, #123 ) ;
#99 = EDGE_CURVE ( 'NONE', #17, #220, #102, .T. ) ;
#100 = PERSON_AND_ORGANIZATION ( #226, #200 ) ;
#101 = VECTOR ( 'NONE', #182, 1000.000000000000000 ) ;
#102 = LINE ( 'NONE', #198, #65 ) ;
#103 = DATE_AND_TIME ( #142, #42 ) ;
#104 = FACE_OUTER_BOUND ( 'NONE', #137, .T. ) ;
#105 = VERTEX_POINT ( 'NONE', #234 ) ;
#106 = FACE_OUTER_BOUND ( 'NONE', #111, .T. ) ;
#107 = LINE ( 'NONE', #96, #37 ) ;
#108 = LINE ( 'NONE', #174, #40 ) ;
#109 = VECTOR ( 'NONE', #38, 1000.000000000000000 ) ;
#110 = CARTESIAN_POINT ( 'NONE',  ( -17.50000000000000000, 17.50000000000000000, -0.5000000000000000000 ) ) ;
#111 = EDGE_LOOP ( 'NONE', ( #181, #72, #213, #170 ) ) ;
#112 = AXIS2_PLACEMENT_3D ( 'NONE', #216, #64, #160 ) ;
#113 = DIRECTION ( 'NONE',  ( 1.000000000000000000, 0.0000000000000000000, 0.0000000000000000000 ) ) ;
#114 = ADVANCED_FACE ( 'NONE', ( #106 ), #199, .F. ) ;
#115 = PERSON_AND_ORGANIZATION_ROLE ( 'classification_officer' ) ;
#116 = ORIENTED_EDGE ( 'NONE', *, *, #124, .T. ) ;
#117 = EDGE_CURVE ( 'NONE', #148, #92, #77, .T. ) ;
#118 = EDGE_CURVE ( 'NONE', #17, #148, #108, .T. ) ;
#119 = CARTESIAN_POINT ( 'NONE',  ( 0.0000000000000000000, 0.0000000000000000000, 0.0000000000000000000 ) ) ;
#120 = DIRECTION ( 'NONE',  ( -1.000000000000000000, 0.0000000000000000000, 0.0000000000000000000 ) ) ;
#121 = LINE ( 'NONE', #186, #13 ) ;
#122 = PLANE ( 'NONE',  #158 ) ;
#123 = LOCAL_TIME ( 13, 57, 6.000000000000000000, #48 ) ;
#124 = EDGE_CURVE ( 'NONE', #33, #18, #153, .T. ) ;
#125 = PERSON_AND_ORGANIZATION_ROLE ( 'creator' ) ;
#126 = EDGE_LOOP ( 'NONE', ( #136, #66, #165, #237 ) ) ;
#127 = ORIENTED_EDGE ( 'NONE', *, *, #124, .F. ) ;
#128 = CARTESIAN_POINT ( 'NONE',  ( -17.50000000000000000, 17.50000000000000000, 0.5000000000000000000 ) ) ;
#129 = EDGE_CURVE ( 'NONE', #105, #33, #6, .T. ) ;
#130 = DIRECTION ( 'NONE',  ( -0.0000000000000000000, -0.0000000000000000000, -1.000000000000000000 ) ) ;
#131 = PERSON_AND_ORGANIZATION ( #226, #200 ) ;
#132 = PRODUCT ( 'Web Model 46609_45326', 'Web Model 46609_45326', '', ( #7 ) ) ;
#133 = CC_DESIGN_PERSON_AND_ORGANIZATION_ASSIGNMENT ( #206, #161, ( #132 ) ) ;
#134 = AXIS2_PLACEMENT_3D ( 'NONE', #34, #58, #32 ) ;
#135 = APPLICATION_CONTEXT ( 'configuration controlled 3d designs of mechanical parts and assemblies' ) ;
#136 = ORIENTED_EDGE ( 'NONE', *, *, #205, .T. ) ;
#137 = EDGE_LOOP ( 'NONE', ( #210, #52, #15, #86 ) ) ;
#138 = DIRECTION ( 'NONE',  ( 0.0000000000000000000, -1.000000000000000000, 0.0000000000000000000 ) ) ;
#139 = LINE ( 'NONE', #144, #101 ) ;
#140 = EDGE_CURVE ( 'NONE', #5, #18, #154, .T. ) ;
#141 = DIRECTION ( 'NONE',  ( -1.000000000000000000, -0.0000000000000000000, -0.0000000000000000000 ) ) ;
#142 = CALENDAR_DATE ( 2017, 10, 4 ) ;
#143 = SECURITY_CLASSIFICATION_LEVEL ( 'unclassified' ) ;
#144 = CARTESIAN_POINT ( 'NONE',  ( -17.50000000000000000, -17.50000000000000000, -0.5000000000000000000 ) ) ;
#145 = PERSON_AND_ORGANIZATION ( #226, #200 ) ;
#146 = APPROVAL_STATUS ( 'not_yet_approved' ) ;
#147 = DIRECTION ( 'NONE',  ( 0.0000000000000000000, -0.0000000000000000000, 1.000000000000000000 ) ) ;
#148 = VERTEX_POINT ( 'NONE', #192 ) ;
#149 = CC_DESIGN_APPROVAL ( #209, ( #217 ) ) ;
#150 = APPROVAL_ROLE ( '' ) ;
#151 = ORIENTED_EDGE ( 'NONE', *, *, #99, .F. ) ;
#152 = ORIENTED_EDGE ( 'NONE', *, *, #140, .T. ) ;
#153 = LINE ( 'NONE', #110, #196 ) ;
#154 = LINE ( 'NONE', #90, #43 ) ;
#155 = CARTESIAN_POINT ( 'NONE',  ( 0.0000000000000000000, 0.0000000000000000000, 0.5000000000000000000 ) ) ;
#156 = CC_DESIGN_APPROVAL ( #167, ( #224 ) ) ;
#157 =( GEOMETRIC_REPRESENTATION_CONTEXT ( 3 ) GLOBAL_UNCERTAINTY_ASSIGNED_CONTEXT ( ( #20 ) ) GLOBAL_UNIT_ASSIGNED_CONTEXT ( ( #185, #91, #57 ) ) REPRESENTATION_CONTEXT ( 'NONE', 'WORKASPACE' ) );
#158 = AXIS2_PLACEMENT_3D ( 'NONE', #155, #173, #76 ) ;
#159 = EDGE_CURVE ( 'NONE', #148, #105, #44, .T. ) ;
#160 = DIRECTION ( 'NONE',  ( -0.0000000000000000000, 0.0000000000000000000, -1.000000000000000000 ) ) ;
#161 = PERSON_AND_ORGANIZATION_ROLE ( 'design_owner' ) ;
#162 = CARTESIAN_POINT ( 'NONE',  ( -17.50000000000000000, 17.50000000000000000, 0.5000000000000000000 ) ) ;
#163 = CARTESIAN_POINT ( 'NONE',  ( -17.50000000000000000, 17.50000000000000000, -0.5000000000000000000 ) ) ;
#164 = LINE ( 'NONE', #189, #109 ) ;
#165 = ORIENTED_EDGE ( 'NONE', *, *, #159, .F. ) ;
#166 = PERSON_AND_ORGANIZATION ( #226, #200 ) ;
#167 = APPROVAL ( #146, 'UNSPECIFIED' ) ;
#168 = CARTESIAN_POINT ( 'NONE',  ( -17.50000000000000000, -17.50000000000000000, -0.5000000000000000000 ) ) ;
#169 = ORIENTED_EDGE ( 'NONE', *, *, #205, .F. ) ;
#170 = ORIENTED_EDGE ( 'NONE', *, *, #99, .T. ) ;
#171 = CARTESIAN_POINT ( 'NONE',  ( 17.50000000000000000, 17.50000000000000000, -0.5000000000000000000 ) ) ;
#172 = EDGE_LOOP ( 'NONE', ( #169, #79, #46, #127 ) ) ;
#173 = DIRECTION ( 'NONE',  ( -0.0000000000000000000, 0.0000000000000000000, 1.000000000000000000 ) ) ;
#174 = CARTESIAN_POINT ( 'NONE',  ( -17.50000000000000000, -17.50000000000000000, 0.5000000000000000000 ) ) ;
#175 = DIRECTION ( 'NONE',  ( 0.0000000000000000000, 0.0000000000000000000, 1.000000000000000000 ) ) ;
#176 = DIRECTION ( 'NONE',  ( 0.0000000000000000000, -1.000000000000000000, 0.0000000000000000000 ) ) ;
#177 = APPROVAL_ROLE ( '' ) ;
#178 = DIRECTION ( 'NONE',  ( -0.0000000000000000000, -0.0000000000000000000, -1.000000000000000000 ) ) ;
#179 = APPROVAL_PERSON_ORGANIZATION ( #145, #93, #150 ) ;
#180 = VECTOR ( 'NONE', #130, 1000.000000000000000 ) ;
#181 = ORIENTED_EDGE ( 'NONE', *, *, #78, .T. ) ;
#182 = DIRECTION ( 'NONE',  ( 1.000000000000000000, 0.0000000000000000000, 0.0000000000000000000 ) ) ;
#183 = DATE_AND_TIME ( #47, #80 ) ;
#184 = DIRECTION ( 'NONE',  ( 0.0000000000000000000, 0.0000000000000000000, 1.000000000000000000 ) ) ;
#185 =( LENGTH_UNIT ( ) NAMED_UNIT ( * ) SI_UNIT ( .MILLI., .METRE. ) );
#186 = CARTESIAN_POINT ( 'NONE',  ( -17.50000000000000000, 17.50000000000000000, -0.5000000000000000000 ) ) ;
#187 = DATE_AND_TIME ( #225, #12 ) ;
#188 = CLOSED_SHELL ( 'NONE', ( #23, #215, #54, #114, #227, #89 ) ) ;
#189 = CARTESIAN_POINT ( 'NONE',  ( 17.50000000000000000, 17.50000000000000000, -0.5000000000000000000 ) ) ;
#190 = COORDINATED_UNIVERSAL_TIME_OFFSET ( 5, 0, .BEHIND. ) ;
#191 = DIRECTION ( 'NONE',  ( -1.000000000000000000, -0.0000000000000000000, -0.0000000000000000000 ) ) ;
#192 = CARTESIAN_POINT ( 'NONE',  ( 17.50000000000000000, -17.50000000000000000, 0.5000000000000000000 ) ) ;
#193 = DESIGN_CONTEXT ( 'detailed design', #207, 'design' ) ;
#194 = EDGE_LOOP ( 'NONE', ( #116, #95, #21, #59 ) ) ;
#195 = CC_DESIGN_PERSON_AND_ORGANIZATION_ASSIGNMENT ( #233, #125, ( #217 ) ) ;
#196 = VECTOR ( 'NONE', #191, 1000.000000000000000 ) ;
#197 = DIRECTION ( 'NONE',  ( -0.0000000000000000000, -0.0000000000000000000, -1.000000000000000000 ) ) ;
#198 = CARTESIAN_POINT ( 'NONE',  ( -17.50000000000000000, -17.50000000000000000, 0.5000000000000000000 ) ) ;
#199 = PLANE ( 'NONE',  #81 ) ;
#200 = ORGANIZATION ( 'UNSPECIFIED', 'UNSPECIFIED', '' ) ;
#201 = CARTESIAN_POINT ( 'NONE',  ( -17.50000000000000000, -17.50000000000000000, 0.5000000000000000000 ) ) ;
#202 = DIRECTION ( 'NONE',  ( 0.0000000000000000000, -1.000000000000000000, 0.0000000000000000000 ) ) ;
#203 = APPLICATION_PROTOCOL_DEFINITION ( 'international standard', 'config_control_design', 1994, #135 ) ;
#204 = CARTESIAN_POINT ( 'NONE',  ( 17.50000000000000000, -17.50000000000000000, 0.5000000000000000000 ) ) ;
#205 = EDGE_CURVE ( 'NONE', #92, #33, #164, .T. ) ;
#206 = PERSON_AND_ORGANIZATION ( #226, #200 ) ;
#207 = APPLICATION_CONTEXT ( 'configuration controlled 3d designs of mechanical parts and assemblies' ) ;
#208 = PERSON_AND_ORGANIZATION ( #226, #200 ) ;
#209 = APPROVAL ( #87, 'UNSPECIFIED' ) ;
#210 = ORIENTED_EDGE ( 'NONE', *, *, #159, .T. ) ;
#211 = CARTESIAN_POINT ( 'NONE',  ( -17.50000000000000000, 17.50000000000000000, 0.5000000000000000000 ) ) ;
#212 = DIRECTION ( 'NONE',  ( -0.0000000000000000000, -0.0000000000000000000, -1.000000000000000000 ) ) ;
#213 = ORIENTED_EDGE ( 'NONE', *, *, #118, .F. ) ;
#214 = PLANE ( 'NONE',  #112 ) ;
#215 = ADVANCED_FACE ( 'NONE', ( #223 ), #229, .F. ) ;
#216 = CARTESIAN_POINT ( 'NONE',  ( -17.50000000000000000, 17.50000000000000000, 0.5000000000000000000 ) ) ;
#217 = PRODUCT_DEFINITION ( 'UNKNOWN', '', #224, #193 ) ;
#218 = FACE_OUTER_BOUND ( 'NONE', #126, .T. ) ;
#219 = DIRECTION ( 'NONE',  ( 0.0000000000000000000, -0.0000000000000000000, -1.000000000000000000 ) ) ;
#220 = VERTEX_POINT ( 'NONE', #168 ) ;
#221 = CARTESIAN_POINT ( 'NONE',  ( 17.50000000000000000, 17.50000000000000000, 0.5000000000000000000 ) ) ;
#222 = PLANE ( 'NONE',  #134 ) ;
#223 = FACE_OUTER_BOUND ( 'NONE', #194, .T. ) ;
#224 = PRODUCT_DEFINITION_FORMATION_WITH_SPECIFIED_SOURCE ( 'ANY', '', #132, .NOT_KNOWN. ) ;
#225 = CALENDAR_DATE ( 2017, 10, 4 ) ;
#226 = PERSON ( 'UNSPECIFIED', 'UNSPECIFIED', 'UNSPECIFIED', ('UNSPECIFIED'), ('UNSPECIFIED'), ('UNSPECIFIED') ) ;
#227 = ADVANCED_FACE ( 'NONE', ( #104 ), #122, .T. ) ;
#228 = DATE_TIME_ROLE ( 'classification_date' ) ;
#229 = PLANE ( 'NONE',  #50 ) ;
#230 = CC_DESIGN_PERSON_AND_ORGANIZATION_ASSIGNMENT ( #100, #45, ( #224 ) ) ;
#231 = APPROVAL_ROLE ( '' ) ;
#232 = SECURITY_CLASSIFICATION ( '', '', #143 ) ;
#233 = PERSON_AND_ORGANIZATION ( #226, #200 ) ;
#234 = CARTESIAN_POINT ( 'NONE',  ( 17.50000000000000000, 17.50000000000000000, 0.5000000000000000000 ) ) ;
#235 = APPROVAL_DATE_TIME ( #183, #167 ) ;
#236 = EDGE_LOOP ( 'NONE', ( #1, #151, #68, #152 ) ) ;
#237 = ORIENTED_EDGE ( 'NONE', *, *, #117, .T. ) ;
ENDSEC;
END-ISO-10303-21;
