ISO-10303-21;
HEADER;
FILE_DESCRIPTION (( 'STEP AP203' ),
    '1' );
FILE_NAME ('Web Model 11900_11900.step',
    '2019-04-22T14:56:04',
    ( '' ),
    ( '' ),
    'SwSTEP 2.0',
    'SolidWorks 2018',
    '' );
FILE_SCHEMA (( 'CONFIG_CONTROL_DESIGN' ));
ENDSEC;

DATA;
#1 = CARTESIAN_POINT ( 'NONE',  ( 0.5000000000000000000, 0.0000000000000000000, 12.50000000000000000 ) ) ;
#2 = PRODUCT_RELATED_PRODUCT_CATEGORY ( 'detail', '', ( #41 ) ) ;
#3 = DIRECTION ( 'NONE',  ( 1.000000000000000000, 0.0000000000000000000, 0.0000000000000000000 ) ) ;
#4 = CIRCLE ( 'NONE', #97, 12.50000000000000000 ) ;
#5 = AXIS2_PLACEMENT_3D ( 'NONE', #209, #110, #72 ) ;
#6 = LINE ( 'NONE', #208, #101 ) ;
#7 = ORIENTED_EDGE ( 'NONE', *, *, #106, .T. ) ;
#8 = LOCAL_TIME ( 10, 56, 4.000000000000000000, #247 ) ;
#9 = VERTEX_POINT ( 'NONE', #114 ) ;
#10 = APPROVAL_STATUS ( 'not_yet_approved' ) ;
#11 =( NAMED_UNIT ( * ) SI_UNIT ( $, .STERADIAN. ) SOLID_ANGLE_UNIT ( ) );
#12 = ORIENTED_EDGE ( 'NONE', *, *, #52, .T. ) ;
#13 = FACE_OUTER_BOUND ( 'NONE', #64, .T. ) ;
#14 = CARTESIAN_POINT ( 'NONE',  ( -0.4500000000000002887, 0.0000000000000000000, -12.50000000000000000 ) ) ;
#15 = DIRECTION ( 'NONE',  ( 0.0000000000000000000, 0.0000000000000000000, 1.000000000000000000 ) ) ;
#16 = PLANE ( 'NONE',  #226 ) ;
#17 = ORIENTED_EDGE ( 'NONE', *, *, #181, .T. ) ;
#18 = CARTESIAN_POINT ( 'NONE',  ( 0.4500000000000072276, 1.530808498934191521E-15, -12.50000000000000000 ) ) ;
#19 = APPROVAL_PERSON_ORGANIZATION ( #25, #141, #157 ) ;
#20 = ORIENTED_EDGE ( 'NONE', *, *, #62, .F. ) ;
#21 = ORIENTED_EDGE ( 'NONE', *, *, #222, .T. ) ;
#22 = APPROVAL_PERSON_ORGANIZATION ( #177, #174, #65 ) ;
#23 = VERTEX_POINT ( 'NONE', #51 ) ;
#24 = DIRECTION ( 'NONE',  ( 0.0000000000000000000, 0.0000000000000000000, -1.000000000000000000 ) ) ;
#25 = PERSON_AND_ORGANIZATION ( #130, #203 ) ;
#26 = MECHANICAL_CONTEXT ( 'NONE', #242, 'mechanical' ) ;
#27 = ORIENTED_EDGE ( 'NONE', *, *, #196, .F. ) ;
#28 = FACE_OUTER_BOUND ( 'NONE', #125, .T. ) ;
#29 = FACE_OUTER_BOUND ( 'NONE', #61, .T. ) ;
#30 = CARTESIAN_POINT ( 'NONE',  ( 0.5000000000000000000, 1.527746881936323379E-15, -12.45000000000000284 ) ) ;
#31 = CARTESIAN_POINT ( 'NONE',  ( 0.4500000000000072276, 0.0000000000000000000, 0.0000000000000000000 ) ) ;
#32 = ADVANCED_FACE ( 'NONE', ( #59 ), #127, .T. ) ;
#33 = CARTESIAN_POINT ( 'NONE',  ( 0.5000000000000000000, 1.530808498934191521E-15, -12.50000000000000000 ) ) ;
#34 = DIRECTION ( 'NONE',  ( 0.7071067811865597852, 0.0000000000000000000, -0.7071067811865352493 ) ) ;
#35 = DIRECTION ( 'NONE',  ( -1.000000000000000000, 0.0000000000000000000, 0.0000000000000000000 ) ) ;
#36 = VERTEX_POINT ( 'NONE', #30 ) ;
#37 = AXIS2_PLACEMENT_3D ( 'NONE', #40, #108, #24 ) ;
#38 = VECTOR ( 'NONE', #92, 1000.000000000000000 ) ;
#39 = ORIENTED_EDGE ( 'NONE', *, *, #124, .F. ) ;
#40 = CARTESIAN_POINT ( 'NONE',  ( -0.4500000000000002887, 0.0000000000000000000, 0.0000000000000000000 ) ) ;
#41 = PRODUCT ( 'Web Model 11900_11900', 'Web Model 11900_11900', '', ( #26 ) ) ;
#42 = CALENDAR_DATE ( 2019, 22, 4 ) ;
#43 = LINE ( 'NONE', #253, #144 ) ;
#44 = APPROVAL_ROLE ( '' ) ;
#45 = EDGE_LOOP ( 'NONE', ( #82, #217 ) ) ;
#46 = APPROVAL_STATUS ( 'not_yet_approved' ) ;
#47 = AXIS2_PLACEMENT_3D ( 'NONE', #246, #48, #188 ) ;
#48 = DIRECTION ( 'NONE',  ( -1.000000000000000000, -0.0000000000000000000, -0.0000000000000000000 ) ) ;
#49 = CARTESIAN_POINT ( 'NONE',  ( 0.4500000000000072276, 0.0000000000000000000, 0.0000000000000000000 ) ) ;
#50 = CARTESIAN_POINT ( 'NONE',  ( -0.4500000000000002887, 0.0000000000000000000, 0.0000000000000000000 ) ) ;
#51 = CARTESIAN_POINT ( 'NONE',  ( -0.5000000000000000000, 1.527746881936323379E-15, 12.45000000000000284 ) ) ;
#52 = EDGE_CURVE ( 'NONE', #194, #273, #99, .T. ) ;
#53 = PERSON_AND_ORGANIZATION ( #130, #203 ) ;
#54 = AXIS2_PLACEMENT_3D ( 'NONE', #49, #35, #192 ) ;
#55 = DIRECTION ( 'NONE',  ( 0.0000000000000000000, 0.0000000000000000000, -1.000000000000000000 ) ) ;
#56 = VECTOR ( 'NONE', #113, 1000.000000000000000 ) ;
#57 = CARTESIAN_POINT ( 'NONE',  ( 0.5000000000000000000, 0.0000000000000000000, 0.0000000000000000000 ) ) ;
#58 = DATE_AND_TIME ( #42, #69 ) ;
#59 = FACE_OUTER_BOUND ( 'NONE', #131, .T. ) ;
#60 = AXIS2_PLACEMENT_3D ( 'NONE', #57, #231, #213 ) ;
#61 = EDGE_LOOP ( 'NONE', ( #20, #68, #241, #168 ) ) ;
#62 = EDGE_CURVE ( 'NONE', #23, #182, #146, .T. ) ;
#63 = CARTESIAN_POINT ( 'NONE',  ( -0.4500000000000002887, 1.530808498934191521E-15, -12.50000000000000000 ) ) ;
#64 = EDGE_LOOP ( 'NONE', ( #142, #12, #17, #264 ) ) ;
#65 = APPROVAL_ROLE ( '' ) ;
#66 = APPROVAL_STATUS ( 'not_yet_approved' ) ;
#67 = AXIS2_PLACEMENT_3D ( 'NONE', #79, #233, #75 ) ;
#68 = ORIENTED_EDGE ( 'NONE', *, *, #78, .F. ) ;
#69 = LOCAL_TIME ( 10, 56, 4.000000000000000000, #138 ) ;
#70 = VECTOR ( 'NONE', #34, 1000.000000000000000 ) ;
#71 = ADVANCED_FACE ( 'NONE', ( #220 ), #268, .T. ) ;
#72 = DIRECTION ( 'NONE',  ( 0.0000000000000000000, 0.0000000000000000000, 1.000000000000000000 ) ) ;
#73 = CARTESIAN_POINT ( 'NONE',  ( 0.5000000000000000000, 0.0000000000000000000, 0.0000000000000000000 ) ) ;
#74 = CIRCLE ( 'NONE', #37, 12.50000000000000000 ) ;
#75 = DIRECTION ( 'NONE',  ( 0.0000000000000000000, 0.0000000000000000000, -1.000000000000000000 ) ) ;
#76 = DIRECTION ( 'NONE',  ( 0.0000000000000000000, 0.0000000000000000000, 1.000000000000000000 ) ) ;
#77 = ORIENTED_EDGE ( 'NONE', *, *, #84, .F. ) ;
#78 = EDGE_CURVE ( 'NONE', #9, #23, #159, .T. ) ;
#79 = CARTESIAN_POINT ( 'NONE',  ( -0.5000000000000000000, 0.0000000000000000000, 0.0000000000000000000 ) ) ;
#80 = CONICAL_SURFACE ( 'NONE', #109, 12.45000000000000284, 0.7853981633975003485 ) ;
#81 = AXIS2_PLACEMENT_3D ( 'NONE', #31, #267, #139 ) ;
#82 = ORIENTED_EDGE ( 'NONE', *, *, #219, .T. ) ;
#83 = FACE_OUTER_BOUND ( 'NONE', #85, .T. ) ;
#84 = EDGE_CURVE ( 'NONE', #207, #194, #183, .T. ) ;
#85 = EDGE_LOOP ( 'NONE', ( #121, #95, #21, #261 ) ) ;
#86 = APPROVAL_PERSON_ORGANIZATION ( #150, #214, #44 ) ;
#87 = PERSON_AND_ORGANIZATION_ROLE ( 'classification_officer' ) ;
#88 = APPLICATION_CONTEXT ( 'configuration controlled 3d designs of mechanical parts and assemblies' ) ;
#89 = AXIS2_PLACEMENT_3D ( 'NONE', #145, #76, #251 ) ;
#90 = DATE_AND_TIME ( #185, #96 ) ;
#91 = DIRECTION ( 'NONE',  ( 0.0000000000000000000, 0.0000000000000000000, -1.000000000000000000 ) ) ;
#92 = DIRECTION ( 'NONE',  ( -1.000000000000000000, -0.0000000000000000000, -0.0000000000000000000 ) ) ;
#93 = DIRECTION ( 'NONE',  ( -0.7071067811865107133, 0.0000000000000000000, 0.7071067811865843211 ) ) ;
#94 = ADVANCED_FACE ( 'NONE', ( #29 ), #173, .T. ) ;
#95 = ORIENTED_EDGE ( 'NONE', *, *, #124, .T. ) ;
#96 = LOCAL_TIME ( 10, 56, 4.000000000000000000, #103 ) ;
#97 = AXIS2_PLACEMENT_3D ( 'NONE', #235, #252, #55 ) ;
#98 = DIRECTION ( 'NONE',  ( 0.0000000000000000000, 0.0000000000000000000, -1.000000000000000000 ) ) ;
#99 = LINE ( 'NONE', #33, #38 ) ;
#100 = LOCAL_TIME ( 10, 56, 4.000000000000000000, #155 ) ;
#101 = VECTOR ( 'NONE', #93, 1000.000000000000000 ) ;
#102 = EDGE_LOOP ( 'NONE', ( #197, #154, #77, #128 ) ) ;
#103 = COORDINATED_UNIVERSAL_TIME_OFFSET ( 5, 0, .BEHIND. ) ;
#104 = CC_DESIGN_PERSON_AND_ORGANIZATION_ASSIGNMENT ( #258, #206, ( #126 ) ) ;
#105 = UNCERTAINTY_MEASURE_WITH_UNIT (LENGTH_MEASURE( 1.000000000000000082E-05 ), #224, 'distance_accuracy_value', 'NONE');
#106 = EDGE_CURVE ( 'NONE', #232, #207, #6, .T. ) ;
#107 = ORIENTED_EDGE ( 'NONE', *, *, #181, .F. ) ;
#108 = DIRECTION ( 'NONE',  ( 1.000000000000000000, -0.0000000000000000000, -0.0000000000000000000 ) ) ;
#109 = AXIS2_PLACEMENT_3D ( 'NONE', #257, #140, #15 ) ;
#110 = DIRECTION ( 'NONE',  ( -1.000000000000000000, 0.0000000000000000000, 0.0000000000000000000 ) ) ;
#111 = ORIENTED_EDGE ( 'NONE', *, *, #176, .T. ) ;
#112 = DATE_AND_TIME ( #250, #178 ) ;
#113 = DIRECTION ( 'NONE',  ( 0.7071067811865597852, 8.659560562354782482E-17, 0.7071067811865352493 ) ) ;
#114 = CARTESIAN_POINT ( 'NONE',  ( -0.5000000000000000000, 0.0000000000000000000, -12.45000000000000284 ) ) ;
#115 = ADVANCED_FACE ( 'NONE', ( #28 ), #227, .T. ) ;
#116 = AXIS2_PLACEMENT_3D ( 'NONE', #147, #204, #205 ) ;
#117 = COORDINATED_UNIVERSAL_TIME_OFFSET ( 5, 0, .BEHIND. ) ;
#118 = DIRECTION ( 'NONE',  ( 1.000000000000000000, 0.0000000000000000000, 0.0000000000000000000 ) ) ;
#119 = DESIGN_CONTEXT ( 'detailed design', #88, 'design' ) ;
#120 = DIRECTION ( 'NONE',  ( -0.7071067811865107133, 8.659560562355383988E-17, -0.7071067811865843211 ) ) ;
#121 = ORIENTED_EDGE ( 'NONE', *, *, #52, .F. ) ;
#122 = APPROVAL_DATE_TIME ( #58, #174 ) ;
#123 = DIRECTION ( 'NONE',  ( -1.000000000000000000, -0.0000000000000000000, -0.0000000000000000000 ) ) ;
#124 = EDGE_CURVE ( 'NONE', #194, #207, #169, .T. ) ;
#125 = EDGE_LOOP ( 'NONE', ( #245, #249, #7, #39 ) ) ;
#126 = PRODUCT_DEFINITION ( 'UNKNOWN', '', #135, #119 ) ;
#127 = CONICAL_SURFACE ( 'NONE', #215, 12.50000000000000000, 0.7853981633974309595 ) ;
#128 = ORIENTED_EDGE ( 'NONE', *, *, #106, .F. ) ;
#129 = APPROVAL_DATE_TIME ( #90, #214 ) ;
#130 = PERSON ( 'UNSPECIFIED', 'UNSPECIFIED', 'UNSPECIFIED', ('UNSPECIFIED'), ('UNSPECIFIED'), ('UNSPECIFIED') ) ;
#131 = EDGE_LOOP ( 'NONE', ( #238, #184, #107, #27 ) ) ;
#132 = PERSON_AND_ORGANIZATION_ROLE ( 'design_supplier' ) ;
#133 = APPLICATION_PROTOCOL_DEFINITION ( 'international standard', 'config_control_design', 1994, #88 ) ;
#134 = CYLINDRICAL_SURFACE ( 'NONE', #116, 12.50000000000000000 ) ;
#135 = PRODUCT_DEFINITION_FORMATION_WITH_SPECIFIED_SOURCE ( 'ANY', '', #41, .NOT_KNOWN. ) ;
#136 = DIRECTION ( 'NONE',  ( -1.000000000000000000, -0.0000000000000000000, -0.0000000000000000000 ) ) ;
#137 = DIRECTION ( 'NONE',  ( 1.000000000000000000, 0.0000000000000000000, 0.0000000000000000000 ) ) ;
#138 = COORDINATED_UNIVERSAL_TIME_OFFSET ( 5, 0, .BEHIND. ) ;
#139 = DIRECTION ( 'NONE',  ( 0.0000000000000000000, 0.0000000000000000000, -1.000000000000000000 ) ) ;
#140 = DIRECTION ( 'NONE',  ( -1.000000000000000000, 0.0000000000000000000, 0.0000000000000000000 ) ) ;
#141 = APPROVAL ( #46, 'UNSPECIFIED' ) ;
#142 = ORIENTED_EDGE ( 'NONE', *, *, #84, .T. ) ;
#143 = CARTESIAN_POINT ( 'NONE',  ( -0.4500000000000002887, 0.0000000000000000000, 12.50000000000000000 ) ) ;
#144 = VECTOR ( 'NONE', #120, 1000.000000000000000 ) ;
#145 = CARTESIAN_POINT ( 'NONE',  ( 0.0000000000000000000, 0.0000000000000000000, 0.0000000000000000000 ) ) ;
#146 = LINE ( 'NONE', #271, #56 ) ;
#147 = CARTESIAN_POINT ( 'NONE',  ( 0.5000000000000000000, 0.0000000000000000000, 0.0000000000000000000 ) ) ;
#148 = VECTOR ( 'NONE', #123, 1000.000000000000000 ) ;
#149 = EDGE_LOOP ( 'NONE', ( #175, #111 ) ) ;
#150 = PERSON_AND_ORGANIZATION ( #130, #203 ) ;
#151 = LINE ( 'NONE', #14, #70 ) ;
#152 =( NAMED_UNIT ( * ) PLANE_ANGLE_UNIT ( ) SI_UNIT ( $, .RADIAN. ) );
#153 = PERSON_AND_ORGANIZATION_ROLE ( 'creator' ) ;
#154 = ORIENTED_EDGE ( 'NONE', *, *, #179, .T. ) ;
#155 = COORDINATED_UNIVERSAL_TIME_OFFSET ( 5, 0, .BEHIND. ) ;
#156 = CC_DESIGN_APPROVAL ( #141, ( #126 ) ) ;
#157 = APPROVAL_ROLE ( '' ) ;
#158 = CARTESIAN_POINT ( 'NONE',  ( -0.5000000000000000000, 0.0000000000000000000, 0.0000000000000000000 ) ) ;
#159 = CIRCLE ( 'NONE', #229, 12.45000000000000284 ) ;
#160 = ADVANCED_FACE ( 'NONE', ( #13 ), #210, .T. ) ;
#161 = DATE_AND_TIME ( #202, #100 ) ;
#162 = FACE_OUTER_BOUND ( 'NONE', #102, .T. ) ;
#163 = DIRECTION ( 'NONE',  ( 1.000000000000000000, -0.0000000000000000000, -0.0000000000000000000 ) ) ;
#164 = CARTESIAN_POINT ( 'NONE',  ( -0.4500000000000002887, 0.0000000000000000000, 0.0000000000000000000 ) ) ;
#165 = CC_DESIGN_PERSON_AND_ORGANIZATION_ASSIGNMENT ( #237, #266, ( #41 ) ) ;
#166 = CARTESIAN_POINT ( 'NONE',  ( 0.5000000000000000000, 0.0000000000000000000, 12.45000000000000284 ) ) ;
#167 = AXIS2_PLACEMENT_3D ( 'NONE', #73, #137, #91 ) ;
#168 = ORIENTED_EDGE ( 'NONE', *, *, #239, .F. ) ;
#169 = CIRCLE ( 'NONE', #54, 12.50000000000000000 ) ;
#170 = AXIS2_PLACEMENT_3D ( 'NONE', #50, #163, #230 ) ;
#171 = ADVANCED_BREP_SHAPE_REPRESENTATION ( 'Web Model 11900_11900', ( #269, #89 ), #260 ) ;
#172 = CLOSED_SHELL ( 'NONE', ( #32, #225, #160, #272, #71, #191, #115, #94 ) ) ;
#173 = CONICAL_SURFACE ( 'NONE', #170, 12.50000000000000000, 0.7853981633974309595 ) ;
#174 = APPROVAL ( #10, 'UNSPECIFIED' ) ;
#175 = ORIENTED_EDGE ( 'NONE', *, *, #78, .T. ) ;
#176 = EDGE_CURVE ( 'NONE', #23, #9, #186, .T. ) ;
#177 = PERSON_AND_ORGANIZATION ( #130, #203 ) ;
#178 = LOCAL_TIME ( 10, 56, 4.000000000000000000, #117 ) ;
#179 = EDGE_CURVE ( 'NONE', #36, #194, #43, .T. ) ;
#180 = SECURITY_CLASSIFICATION_LEVEL ( 'unclassified' ) ;
#181 = EDGE_CURVE ( 'NONE', #273, #182, #4, .T. ) ;
#182 = VERTEX_POINT ( 'NONE', #143 ) ;
#183 = CIRCLE ( 'NONE', #81, 12.50000000000000000 ) ;
#184 = ORIENTED_EDGE ( 'NONE', *, *, #62, .T. ) ;
#185 = CALENDAR_DATE ( 2019, 22, 4 ) ;
#186 = CIRCLE ( 'NONE', #67, 12.45000000000000284 ) ;
#187 = CC_DESIGN_DATE_AND_TIME_ASSIGNMENT ( #161, #221, ( #126 ) ) ;
#188 = DIRECTION ( 'NONE',  ( 0.0000000000000000000, 0.0000000000000000000, 1.000000000000000000 ) ) ;
#189 = DIRECTION ( 'NONE',  ( 1.000000000000000000, -0.0000000000000000000, -0.0000000000000000000 ) ) ;
#190 = DIRECTION ( 'NONE',  ( 0.0000000000000000000, 0.0000000000000000000, -1.000000000000000000 ) ) ;
#191 = ADVANCED_FACE ( 'NONE', ( #263 ), #16, .F. ) ;
#192 = DIRECTION ( 'NONE',  ( 0.0000000000000000000, 0.0000000000000000000, -1.000000000000000000 ) ) ;
#193 = CC_DESIGN_PERSON_AND_ORGANIZATION_ASSIGNMENT ( #53, #153, ( #135 ) ) ;
#194 = VERTEX_POINT ( 'NONE', #18 ) ;
#195 = DATE_AND_TIME ( #199, #8 ) ;
#196 = EDGE_CURVE ( 'NONE', #9, #273, #151, .T. ) ;
#197 = ORIENTED_EDGE ( 'NONE', *, *, #198, .F. ) ;
#198 = EDGE_CURVE ( 'NONE', #36, #232, #255, .T. ) ;
#199 = CALENDAR_DATE ( 2019, 22, 4 ) ;
#200 = CIRCLE ( 'NONE', #60, 12.45000000000000284 ) ;
#201 = CC_DESIGN_PERSON_AND_ORGANIZATION_ASSIGNMENT ( #254, #87, ( #234 ) ) ;
#202 = CALENDAR_DATE ( 2019, 22, 4 ) ;
#203 = ORGANIZATION ( 'UNSPECIFIED', 'UNSPECIFIED', '' ) ;
#204 = DIRECTION ( 'NONE',  ( -1.000000000000000000, -0.0000000000000000000, -0.0000000000000000000 ) ) ;
#205 = DIRECTION ( 'NONE',  ( 0.0000000000000000000, 0.0000000000000000000, 1.000000000000000000 ) ) ;
#206 = PERSON_AND_ORGANIZATION_ROLE ( 'creator' ) ;
#207 = VERTEX_POINT ( 'NONE', #275 ) ;
#208 = CARTESIAN_POINT ( 'NONE',  ( 0.5000000000000000000, 0.0000000000000000000, 12.45000000000000284 ) ) ;
#209 = CARTESIAN_POINT ( 'NONE',  ( 0.5000000000000000000, 0.0000000000000000000, 0.0000000000000000000 ) ) ;
#210 = CYLINDRICAL_SURFACE ( 'NONE', #47, 12.50000000000000000 ) ;
#211 = CC_DESIGN_APPROVAL ( #174, ( #135 ) ) ;
#212 = PERSON_AND_ORGANIZATION ( #130, #203 ) ;
#213 = DIRECTION ( 'NONE',  ( 0.0000000000000000000, 0.0000000000000000000, -1.000000000000000000 ) ) ;
#214 = APPROVAL ( #66, 'UNSPECIFIED' ) ;
#215 = AXIS2_PLACEMENT_3D ( 'NONE', #164, #189, #228 ) ;
#216 = PRODUCT_DEFINITION_SHAPE ( 'NONE', 'NONE',  #126 ) ;
#217 = ORIENTED_EDGE ( 'NONE', *, *, #198, .T. ) ;
#218 = CC_DESIGN_PERSON_AND_ORGANIZATION_ASSIGNMENT ( #212, #132, ( #135 ) ) ;
#219 = EDGE_CURVE ( 'NONE', #232, #36, #200, .T. ) ;
#220 = FACE_OUTER_BOUND ( 'NONE', #45, .T. ) ;
#221 = DATE_TIME_ROLE ( 'creation_date' ) ;
#222 = EDGE_CURVE ( 'NONE', #207, #182, #248, .T. ) ;
#223 = CC_DESIGN_DATE_AND_TIME_ASSIGNMENT ( #195, #265, ( #234 ) ) ;
#224 =( LENGTH_UNIT ( ) NAMED_UNIT ( * ) SI_UNIT ( .MILLI., .METRE. ) );
#225 = ADVANCED_FACE ( 'NONE', ( #162 ), #80, .T. ) ;
#226 = AXIS2_PLACEMENT_3D ( 'NONE', #256, #3, #190 ) ;
#227 = CONICAL_SURFACE ( 'NONE', #5, 12.45000000000000284, 0.7853981633975003485 ) ;
#228 = DIRECTION ( 'NONE',  ( 0.0000000000000000000, 0.0000000000000000000, -1.000000000000000000 ) ) ;
#229 = AXIS2_PLACEMENT_3D ( 'NONE', #158, #136, #270 ) ;
#230 = DIRECTION ( 'NONE',  ( 0.0000000000000000000, 0.0000000000000000000, -1.000000000000000000 ) ) ;
#231 = DIRECTION ( 'NONE',  ( 1.000000000000000000, 0.0000000000000000000, 0.0000000000000000000 ) ) ;
#232 = VERTEX_POINT ( 'NONE', #166 ) ;
#233 = DIRECTION ( 'NONE',  ( -1.000000000000000000, -0.0000000000000000000, -0.0000000000000000000 ) ) ;
#234 = SECURITY_CLASSIFICATION ( '', '', #180 ) ;
#235 = CARTESIAN_POINT ( 'NONE',  ( -0.4500000000000002887, 0.0000000000000000000, 0.0000000000000000000 ) ) ;
#236 = CARTESIAN_POINT ( 'NONE',  ( 0.5000000000000000000, 0.0000000000000000000, 0.0000000000000000000 ) ) ;
#237 = PERSON_AND_ORGANIZATION ( #130, #203 ) ;
#238 = ORIENTED_EDGE ( 'NONE', *, *, #176, .F. ) ;
#239 = EDGE_CURVE ( 'NONE', #182, #273, #74, .T. ) ;
#240 = AXIS2_PLACEMENT_3D ( 'NONE', #236, #118, #98 ) ;
#241 = ORIENTED_EDGE ( 'NONE', *, *, #196, .T. ) ;
#242 = APPLICATION_CONTEXT ( 'configuration controlled 3d designs of mechanical parts and assemblies' ) ;
#243 = APPLICATION_PROTOCOL_DEFINITION ( 'international standard', 'config_control_design', 1994, #242 ) ;
#244 = CC_DESIGN_APPROVAL ( #214, ( #234 ) ) ;
#245 = ORIENTED_EDGE ( 'NONE', *, *, #179, .F. ) ;
#246 = CARTESIAN_POINT ( 'NONE',  ( 0.5000000000000000000, 0.0000000000000000000, 0.0000000000000000000 ) ) ;
#247 = COORDINATED_UNIVERSAL_TIME_OFFSET ( 5, 0, .BEHIND. ) ;
#248 = LINE ( 'NONE', #1, #148 ) ;
#249 = ORIENTED_EDGE ( 'NONE', *, *, #219, .F. ) ;
#250 = CALENDAR_DATE ( 2019, 22, 4 ) ;
#251 = DIRECTION ( 'NONE',  ( 1.000000000000000000, 0.0000000000000000000, 0.0000000000000000000 ) ) ;
#252 = DIRECTION ( 'NONE',  ( 1.000000000000000000, -0.0000000000000000000, -0.0000000000000000000 ) ) ;
#253 = CARTESIAN_POINT ( 'NONE',  ( 0.5000000000000000000, 1.524685264938455237E-15, -12.45000000000000284 ) ) ;
#254 = PERSON_AND_ORGANIZATION ( #130, #203 ) ;
#255 = CIRCLE ( 'NONE', #240, 12.45000000000000284 ) ;
#256 = CARTESIAN_POINT ( 'NONE',  ( -0.5000000000000000000, 0.0000000000000000000, 0.0000000000000000000 ) ) ;
#257 = CARTESIAN_POINT ( 'NONE',  ( 0.5000000000000000000, 0.0000000000000000000, 0.0000000000000000000 ) ) ;
#258 = PERSON_AND_ORGANIZATION ( #130, #203 ) ;
#259 = SHAPE_DEFINITION_REPRESENTATION ( #216, #171 ) ;
#260 =( GEOMETRIC_REPRESENTATION_CONTEXT ( 3 ) GLOBAL_UNCERTAINTY_ASSIGNED_CONTEXT ( ( #105 ) ) GLOBAL_UNIT_ASSIGNED_CONTEXT ( ( #224, #152, #11 ) ) REPRESENTATION_CONTEXT ( 'NONE', 'WORKASPACE' ) );
#261 = ORIENTED_EDGE ( 'NONE', *, *, #239, .T. ) ;
#262 = CC_DESIGN_SECURITY_CLASSIFICATION ( #234, ( #135 ) ) ;
#263 = FACE_OUTER_BOUND ( 'NONE', #149, .T. ) ;
#264 = ORIENTED_EDGE ( 'NONE', *, *, #222, .F. ) ;
#265 = DATE_TIME_ROLE ( 'classification_date' ) ;
#266 = PERSON_AND_ORGANIZATION_ROLE ( 'design_owner' ) ;
#267 = DIRECTION ( 'NONE',  ( -1.000000000000000000, 0.0000000000000000000, 0.0000000000000000000 ) ) ;
#268 = PLANE ( 'NONE',  #167 ) ;
#269 = MANIFOLD_SOLID_BREP ( '11876-1-solid1', #172 ) ;
#270 = DIRECTION ( 'NONE',  ( 0.0000000000000000000, 0.0000000000000000000, -1.000000000000000000 ) ) ;
#271 = CARTESIAN_POINT ( 'NONE',  ( -0.4500000000000002887, 1.530808498934191521E-15, 12.50000000000000000 ) ) ;
#272 = ADVANCED_FACE ( 'NONE', ( #83 ), #134, .T. ) ;
#273 = VERTEX_POINT ( 'NONE', #63 ) ;
#274 = APPROVAL_DATE_TIME ( #112, #141 ) ;
#275 = CARTESIAN_POINT ( 'NONE',  ( 0.4500000000000072276, 0.0000000000000000000, 12.50000000000000000 ) ) ;
ENDSEC;
END-ISO-10303-21;
