ISO-10303-21;
HEADER;
FILE_DESCRIPTION (( 'STEP AP203' ),
    '1' );
FILE_NAME ('25014-E0W.STEP',
    '2012-09-28T16:16:59',
    ( 'Admin' ),
    ( 'Thorlabs, Inc.' ),
    'SwSTEP 2.0',
    'SolidWorks 2011',
    '' );
FILE_SCHEMA (( 'CONFIG_CONTROL_DESIGN' ));
ENDSEC;

DATA;
#1 = ORIENTED_EDGE ( 'NONE', *, *, #319, .T. ) ;
#2 = ADVANCED_FACE ( 'NONE', ( #219 ), #196, .T. ) ;
#3 = ORIENTED_EDGE ( 'NONE', *, *, #46, .F. ) ;
#4 = EDGE_CURVE ( 'NONE', #67, #71, #239, .T. ) ;
#5 = EDGE_LOOP ( 'NONE', ( #40, #36, #38 ) ) ;
#6 = ORIENTED_EDGE ( 'NONE', *, *, #61, .T. ) ;
#7 = EDGE_LOOP ( 'NONE', ( #13, #324, #320, #19 ) ) ;
#8 = ORIENTED_EDGE ( 'NONE', *, *, #37, .F. ) ;
#9 = ORIENTED_EDGE ( 'NONE', *, *, #10, .T. ) ;
#10 = EDGE_CURVE ( 'NONE', #25, #34, #197, .T. ) ;
#11 = ORIENTED_EDGE ( 'NONE', *, *, #42, .F. ) ;
#12 = ORIENTED_EDGE ( 'NONE', *, *, #319, .F. ) ;
#13 = ORIENTED_EDGE ( 'NONE', *, *, #32, .F. ) ;
#14 = ORIENTED_EDGE ( 'NONE', *, *, #72, .F. ) ;
#15 = CLOSED_SHELL ( 'NONE', ( #47, #52, #63, #64, #35, #39, #16, #2, #323, #23 ) ) ;
#16 = ADVANCED_FACE ( 'NONE', ( #210 ), #108, .T. ) ;
#17 = EDGE_CURVE ( 'NONE', #67, #316, #209, .T. ) ;
#18 = ORIENTED_EDGE ( 'NONE', *, *, #4, .T. ) ;
#19 = ORIENTED_EDGE ( 'NONE', *, *, #10, .F. ) ;
#20 = EDGE_CURVE ( 'NONE', #27, #316, #105, .T. ) ;
#21 = EDGE_LOOP ( 'NONE', ( #317, #315, #41 ) ) ;
#22 = EDGE_LOOP ( 'NONE', ( #3, #322, #11 ) ) ;
#23 = ADVANCED_FACE ( 'NONE', ( #198 ), #98, .T. ) ;
#24 = EDGE_LOOP ( 'NONE', ( #14, #9, #6, #12 ) ) ;
#25 = VERTEX_POINT ( 'NONE', #94 ) ;
#26 = EDGE_LOOP ( 'NONE', ( #73, #28, #70, #59 ) ) ;
#27 = VERTEX_POINT ( 'NONE', #106 ) ;
#28 = ORIENTED_EDGE ( 'NONE', *, *, #72, .T. ) ;
#29 = ORIENTED_EDGE ( 'NONE', *, *, #51, .T. ) ;
#30 = EDGE_CURVE ( 'NONE', #34, #25, #96, .T. ) ;
#31 = ORIENTED_EDGE ( 'NONE', *, *, #32, .T. ) ;
#32 = EDGE_CURVE ( 'NONE', #56, #25, #119, .T. ) ;
#33 = ORIENTED_EDGE ( 'NONE', *, *, #30, .F. ) ;
#34 = VERTEX_POINT ( 'NONE', #86 ) ;
#35 = ADVANCED_FACE ( 'NONE', ( #89 ), #77, .T. ) ;
#36 = ORIENTED_EDGE ( 'NONE', *, *, #37, .T. ) ;
#37 = EDGE_CURVE ( 'NONE', #67, #27, #95, .T. ) ;
#38 = ORIENTED_EDGE ( 'NONE', *, *, #20, .T. ) ;
#39 = ADVANCED_FACE ( 'NONE', ( #84 ), #93, .T. ) ;
#40 = ORIENTED_EDGE ( 'NONE', *, *, #17, .F. ) ;
#41 = ORIENTED_EDGE ( 'NONE', *, *, #20, .F. ) ;
#42 = EDGE_CURVE ( 'NONE', #56, #48, #78, .T. ) ;
#43 = ORIENTED_EDGE ( 'NONE', *, *, #44, .F. ) ;
#44 = EDGE_CURVE ( 'NONE', #53, #48, #80, .T. ) ;
#45 = EDGE_LOOP ( 'NONE', ( #43, #50, #49 ) ) ;
#46 = EDGE_CURVE ( 'NONE', #53, #56, #232, .T. ) ;
#47 = ADVANCED_FACE ( 'NONE', ( #83 ), #190, .T. ) ;
#48 = VERTEX_POINT ( 'NONE', #136 ) ;
#49 = ORIENTED_EDGE ( 'NONE', *, *, #51, .F. ) ;
#50 = ORIENTED_EDGE ( 'NONE', *, *, #46, .T. ) ;
#51 = EDGE_CURVE ( 'NONE', #48, #56, #141, .T. ) ;
#52 = ADVANCED_FACE ( 'NONE', ( #139 ), #140, .T. ) ;
#53 = VERTEX_POINT ( 'NONE', #133 ) ;
#54 = ORIENTED_EDGE ( 'NONE', *, *, #4, .F. ) ;
#55 = EDGE_LOOP ( 'NONE', ( #29, #31, #33, #75 ) ) ;
#56 = VERTEX_POINT ( 'NONE', #127 ) ;
#57 = EDGE_CURVE ( 'NONE', #27, #69, #182, .T. ) ;
#58 = ORIENTED_EDGE ( 'NONE', *, *, #68, .T. ) ;
#59 = ORIENTED_EDGE ( 'NONE', *, *, #61, .F. ) ;
#60 = ORIENTED_EDGE ( 'NONE', *, *, #66, .F. ) ;
#61 = EDGE_CURVE ( 'NONE', #34, #69, #138, .T. ) ;
#62 = ORIENTED_EDGE ( 'NONE', *, *, #57, .T. ) ;
#63 = ADVANCED_FACE ( 'NONE', ( #229 ), #134, .T. ) ;
#64 = ADVANCED_FACE ( 'NONE', ( #230 ), #222, .T. ) ;
#65 = EDGE_LOOP ( 'NONE', ( #60, #62, #58, #54 ) ) ;
#66 = EDGE_CURVE ( 'NONE', #27, #67, #226, .T. ) ;
#67 = VERTEX_POINT ( 'NONE', #167 ) ;
#68 = EDGE_CURVE ( 'NONE', #69, #71, #223, .T. ) ;
#69 = VERTEX_POINT ( 'NONE', #165 ) ;
#70 = ORIENTED_EDGE ( 'NONE', *, *, #68, .F. ) ;
#71 = VERTEX_POINT ( 'NONE', #158 ) ;
#72 = EDGE_CURVE ( 'NONE', #25, #71, #155, .T. ) ;
#73 = ORIENTED_EDGE ( 'NONE', *, *, #30, .T. ) ;
#74 = EDGE_CURVE ( 'NONE', #48, #34, #147, .T. ) ;
#75 = ORIENTED_EDGE ( 'NONE', *, *, #74, .F. ) ;
#76 = MANIFOLD_SOLID_BREP ( '25014-001-1-solid1', #15 ) ;
#77 = TOROIDAL_SURFACE ( 'NONE', #231, -0.03501313098569453600, 31.00000000000000000 ) ;
#78 = CIRCLE ( 'NONE', #194, 12.55857864376268500 ) ;
#79 = DIRECTION ( 'NONE',  ( 1.878145495644181100E-016, -1.000000000000000000, 0.0000000000000000000 ) ) ;
#80 = CIRCLE ( 'NONE', #126, 31.00000000000000000 ) ;
#81 = CARTESIAN_POINT ( 'NONE',  ( -0.8852898261959968300, -12.69999999999999900, 1.555301434917138400E-015 ) ) ;
#82 = AXIS2_PLACEMENT_3D ( 'NONE', #203, #202, #201 ) ;
#83 = FACE_OUTER_BOUND ( 'NONE', #45, .T. ) ;
#84 = FACE_OUTER_BOUND ( 'NONE', #5, .T. ) ;
#85 = AXIS2_PLACEMENT_3D ( 'NONE', #240, #217, #208 ) ;
#86 = CARTESIAN_POINT ( 'NONE',  ( 0.8852898261960063800, -12.69999999999999900, 0.0000000000000000000 ) ) ;
#87 = DIRECTION ( 'NONE',  ( 1.836970198721029700E-016, -1.000000000000000000, 0.0000000000000000000 ) ) ;
#88 = DIRECTION ( 'NONE',  ( -1.000000000000000000, -1.836970198721029700E-016, -0.0000000000000000000 ) ) ;
#89 = FACE_OUTER_BOUND ( 'NONE', #21, .T. ) ;
#90 = DIRECTION ( 'NONE',  ( -0.7071067811865432400, 0.7071067811865517900, 8.659560562354987100E-017 ) ) ;
#91 = VECTOR ( 'NONE', #90, 1000.000000000000000 ) ;
#92 = CARTESIAN_POINT ( 'NONE',  ( 27.29998022710108800, 5.692061405548898300E-015, 0.0000000000000000000 ) ) ;
#93 = TOROIDAL_SURFACE ( 'NONE', #111, -0.03501313098569453600, 31.00000000000000000 ) ;
#94 = CARTESIAN_POINT ( 'NONE',  ( 0.8852898261960016100, 12.69999999999999900, 1.555301434917138400E-015 ) ) ;
#95 = CIRCLE ( 'NONE', #82, 12.55857864376269000 ) ;
#96 = CIRCLE ( 'NONE', #199, 12.69999999999999900 ) ;
#97 = DIRECTION ( 'NONE',  ( -1.000000000000000000, 0.0000000000000000000, 0.0000000000000000000 ) ) ;
#98 = TOROIDAL_SURFACE ( 'NONE', #107, -0.03501313098567843800, 31.00000000000000000 ) ;
#99 = DIRECTION ( 'NONE',  ( 0.0000000000000000000, -1.000000000000000000, -1.224646799147353200E-016 ) ) ;
#100 = DIRECTION ( 'NONE',  ( 2.249639673992786400E-032, -1.224646799147353200E-016, 1.000000000000000000 ) ) ;
#101 = AXIS2_PLACEMENT_3D ( 'NONE', #169, #100, #99 ) ;
#102 = DIRECTION ( 'NONE',  ( 0.0000000000000000000, 0.0000000000000000000, -1.000000000000000000 ) ) ;
#103 = CARTESIAN_POINT ( 'NONE',  ( 27.29998022710108800, 0.03501313098570023300, 0.0000000000000000000 ) ) ;
#104 = AXIS2_PLACEMENT_3D ( 'NONE', #103, #102, #97 ) ;
#105 = CIRCLE ( 'NONE', #104, 31.00000000000000000 ) ;
#106 = CARTESIAN_POINT ( 'NONE',  ( -1.026711182433306800, -12.55857864376269000, 0.0000000000000000000 ) ) ;
#107 = AXIS2_PLACEMENT_3D ( 'NONE', #170, #88, #87 ) ;
#108 = CONICAL_SURFACE ( 'NONE', #85, 12.69999999999999900, 0.7853981633974513900 ) ;
#109 = CARTESIAN_POINT ( 'NONE',  ( -3.700000000000000200, 0.0000000000000000000, 0.0000000000000000000 ) ) ;
#110 = DIRECTION ( 'NONE',  ( -1.000000000000000000, -1.836970198721029700E-016, -0.0000000000000000000 ) ) ;
#111 = AXIS2_PLACEMENT_3D ( 'NONE', #113, #112, #118 ) ;
#112 = DIRECTION ( 'NONE',  ( -1.000000000000000000, -1.836970198721029700E-016, -0.0000000000000000000 ) ) ;
#113 = CARTESIAN_POINT ( 'NONE',  ( 27.29998022710108800, 5.692061405548898300E-015, 0.0000000000000000000 ) ) ;
#114 = CARTESIAN_POINT ( 'NONE',  ( 1.026711182433314800, 12.55857864376268700, 1.537982313792427900E-015 ) ) ;
#115 = DIRECTION ( 'NONE',  ( 1.878145495644181100E-016, -1.000000000000000000, 0.0000000000000000000 ) ) ;
#116 = DIRECTION ( 'NONE',  ( -1.000000000000000000, -1.836970198721029700E-016, -0.0000000000000000000 ) ) ;
#117 = CARTESIAN_POINT ( 'NONE',  ( 0.8852898261960040500, 8.423040763220788700E-016, 0.0000000000000000000 ) ) ;
#118 = DIRECTION ( 'NONE',  ( 1.836970198721029700E-016, -1.000000000000000000, 0.0000000000000000000 ) ) ;
#119 = LINE ( 'NONE', #114, #91 ) ;
#120 = DIRECTION ( 'NONE',  ( 2.249639673992786400E-032, -1.224646799147353200E-016, 1.000000000000000000 ) ) ;
#121 = DIRECTION ( 'NONE',  ( 1.000000000000000000, 1.836970198721029700E-016, 0.0000000000000000000 ) ) ;
#122 = AXIS2_PLACEMENT_3D ( 'NONE', #189, #120, #142 ) ;
#123 = DIRECTION ( 'NONE',  ( -1.000000000000000000, 0.0000000000000000000, 0.0000000000000000000 ) ) ;
#124 = DIRECTION ( 'NONE',  ( 0.0000000000000000000, 0.0000000000000000000, -1.000000000000000000 ) ) ;
#125 = CARTESIAN_POINT ( 'NONE',  ( -27.29998022710108800, 0.03501313098567410100, 0.0000000000000000000 ) ) ;
#126 = AXIS2_PLACEMENT_3D ( 'NONE', #125, #124, #123 ) ;
#127 = CARTESIAN_POINT ( 'NONE',  ( 1.026711182433314800, 12.55857864376268700, 1.546641874354783300E-015 ) ) ;
#128 = DIRECTION ( 'NONE',  ( -1.878145495644181100E-016, 1.000000000000000000, 0.0000000000000000000 ) ) ;
#129 = DIRECTION ( 'NONE',  ( 1.899295172748518000E-016, -1.000000000000000000, 0.0000000000000000000 ) ) ;
#130 = DIRECTION ( 'NONE',  ( -1.000000000000000000, -1.836970198721029700E-016, -0.0000000000000000000 ) ) ;
#131 = CARTESIAN_POINT ( 'NONE',  ( 1.026711182433317300, 8.682827580091445100E-016, 0.0000000000000000000 ) ) ;
#132 = AXIS2_PLACEMENT_3D ( 'NONE', #131, #130, #129 ) ;
#133 = CARTESIAN_POINT ( 'NONE',  ( 3.700000000000000200, 1.359357947053562200E-015, 0.0000000000000000000 ) ) ;
#134 = CYLINDRICAL_SURFACE ( 'NONE', #225, 12.69999999999999900 ) ;
#135 = AXIS2_PLACEMENT_3D ( 'NONE', #228, #121, #128 ) ;
#136 = CARTESIAN_POINT ( 'NONE',  ( 1.026711182433319500, -12.55857864376268300, 0.0000000000000000000 ) ) ;
#137 = DIRECTION ( 'NONE',  ( 1.836970198721029700E-016, -1.000000000000000000, 0.0000000000000000000 ) ) ;
#138 = LINE ( 'NONE', #184, #183 ) ;
#139 = FACE_OUTER_BOUND ( 'NONE', #55, .T. ) ;
#140 = CONICAL_SURFACE ( 'NONE', #188, 12.55857864376268500, 0.7853981633974545000 ) ;
#141 = CIRCLE ( 'NONE', #132, 12.55857864376268500 ) ;
#142 = DIRECTION ( 'NONE',  ( 0.0000000000000000000, -1.000000000000000000, -1.224646799147353200E-016 ) ) ;
#143 = FACE_OUTER_BOUND ( 'NONE', #7, .T. ) ;
#144 = DIRECTION ( 'NONE',  ( -0.7071067811865431300, -0.7071067811865520100, 0.0000000000000000000 ) ) ;
#145 = VECTOR ( 'NONE', #144, 999.9999999999998900 ) ;
#146 = CARTESIAN_POINT ( 'NONE',  ( 1.026711182433319500, -12.55857864376268300, 0.0000000000000000000 ) ) ;
#147 = LINE ( 'NONE', #146, #145 ) ;
#148 = CIRCLE ( 'NONE', #153, 12.69999999999999900 ) ;
#149 = DIRECTION ( 'NONE',  ( -1.000000000000000000, -1.836970198721029700E-016, -0.0000000000000000000 ) ) ;
#150 = DIRECTION ( 'NONE',  ( -1.000000000000000000, -1.836970198721029700E-016, -0.0000000000000000000 ) ) ;
#151 = VECTOR ( 'NONE', #150, 1000.000000000000000 ) ;
#152 = CARTESIAN_POINT ( 'NONE',  ( -3.700000000000002400, 12.69999999999999900, 1.555301434917138400E-015 ) ) ;
#153 = AXIS2_PLACEMENT_3D ( 'NONE', #215, #214, #213 ) ;
#154 = CARTESIAN_POINT ( 'NONE',  ( 1.026711182433317300, 8.682827580091445100E-016, 0.0000000000000000000 ) ) ;
#155 = LINE ( 'NONE', #152, #151 ) ;
#156 = DIRECTION ( 'NONE',  ( 1.878145495644181100E-016, -1.000000000000000000, 0.0000000000000000000 ) ) ;
#157 = DIRECTION ( 'NONE',  ( -1.000000000000000000, -1.836970198721029700E-016, -0.0000000000000000000 ) ) ;
#158 = CARTESIAN_POINT ( 'NONE',  ( -0.8852898261960016100, 12.69999999999999900, 0.0000000000000000000 ) ) ;
#159 = AXIS2_PLACEMENT_3D ( 'NONE', #154, #149, #211 ) ;
#160 = DIRECTION ( 'NONE',  ( 1.899295172748517300E-016, -1.000000000000000000, 0.0000000000000000000 ) ) ;
#161 = DIRECTION ( 'NONE',  ( -1.000000000000000000, -1.836970198721029700E-016, -0.0000000000000000000 ) ) ;
#162 = CARTESIAN_POINT ( 'NONE',  ( -1.026711182433308200, 4.910751890444193200E-016, 0.0000000000000000000 ) ) ;
#163 = AXIS2_PLACEMENT_3D ( 'NONE', #162, #161, #160 ) ;
#164 = AXIS2_PLACEMENT_3D ( 'NONE', #166, #157, #156 ) ;
#165 = CARTESIAN_POINT ( 'NONE',  ( -0.8852898261959968300, -12.69999999999999900, 1.555301434917138400E-015 ) ) ;
#166 = CARTESIAN_POINT ( 'NONE',  ( -0.8852898261959992700, 5.170538707314839800E-016, 0.0000000000000000000 ) ) ;
#167 = CARTESIAN_POINT ( 'NONE',  ( -1.026711182433312400, 12.55857864376269000, 1.537982313792428700E-015 ) ) ;
#168 = CARTESIAN_POINT ( 'NONE',  ( -3.700000000000000200, 0.0000000000000000000, 0.0000000000000000000 ) ) ;
#169 = CARTESIAN_POINT ( 'NONE',  ( 27.29998022710108800, -0.03501313098568884600, -4.287871878975782500E-018 ) ) ;
#170 = CARTESIAN_POINT ( 'NONE',  ( -27.29998022710108800, -4.336808689942017700E-015, 0.0000000000000000000 ) ) ;
#171 = CARTESIAN_POINT ( 'NONE',  ( 0.0000000000000000000, 0.0000000000000000000, 0.0000000000000000000 ) ) ;
#172 = DIRECTION ( 'NONE',  ( 1.000000000000000000, 0.0000000000000000000, 0.0000000000000000000 ) ) ;
#173 = DIRECTION ( 'NONE',  ( 0.0000000000000000000, 0.0000000000000000000, 1.000000000000000000 ) ) ;
#174 = ADVANCED_BREP_SHAPE_REPRESENTATION ( '25014-E0W', ( #76, #212 ), #175 ) ;
#175 =( GEOMETRIC_REPRESENTATION_CONTEXT ( 3 ) GLOBAL_UNCERTAINTY_ASSIGNED_CONTEXT ( ( #176 ) ) GLOBAL_UNIT_ASSIGNED_CONTEXT ( ( #205, #178, #177 ) ) REPRESENTATION_CONTEXT ( 'NONE', 'WORKASPACE' ) );
#176 = UNCERTAINTY_MEASURE_WITH_UNIT (LENGTH_MEASURE( 1.000000000000000100E-005 ), #205, 'distance_accuracy_value', 'NONE');
#177 =( NAMED_UNIT ( * ) SI_UNIT ( $, .STERADIAN. ) SOLID_ANGLE_UNIT ( ) );
#178 =( NAMED_UNIT ( * ) PLANE_ANGLE_UNIT ( ) SI_UNIT ( $, .RADIAN. ) );
#179 = AXIS2_PLACEMENT_3D ( 'NONE', #207, #206, #79 ) ;
#180 = DIRECTION ( 'NONE',  ( 0.7071067811865454600, -0.7071067811865495700, 8.659560562354960000E-017 ) ) ;
#181 = VECTOR ( 'NONE', #180, 1000.000000000000000 ) ;
#182 = LINE ( 'NONE', #81, #181 ) ;
#183 = VECTOR ( 'NONE', #227, 1000.000000000000000 ) ;
#184 = CARTESIAN_POINT ( 'NONE',  ( -3.699999999999998000, -12.69999999999999900, 0.0000000000000000000 ) ) ;
#185 = DIRECTION ( 'NONE',  ( 1.899295172748518000E-016, -1.000000000000000000, 0.0000000000000000000 ) ) ;
#186 = DIRECTION ( 'NONE',  ( -1.000000000000000000, -1.836970198721029700E-016, -0.0000000000000000000 ) ) ;
#187 = CARTESIAN_POINT ( 'NONE',  ( 1.026711182433317300, 8.682827580091445100E-016, 0.0000000000000000000 ) ) ;
#188 = AXIS2_PLACEMENT_3D ( 'NONE', #187, #186, #185 ) ;
#189 = CARTESIAN_POINT ( 'NONE',  ( -27.29998022710108800, -0.03501313098568277500, -4.287871878973811100E-018 ) ) ;
#190 = TOROIDAL_SURFACE ( 'NONE', #200, -0.03501313098567843800, 31.00000000000000000 ) ;
#191 = DIRECTION ( 'NONE',  ( 1.899295172748518000E-016, -1.000000000000000000, 0.0000000000000000000 ) ) ;
#192 = DIRECTION ( 'NONE',  ( -1.000000000000000000, -1.836970198721029700E-016, -0.0000000000000000000 ) ) ;
#193 = CARTESIAN_POINT ( 'NONE',  ( 1.026711182433317300, 8.682827580091445100E-016, 0.0000000000000000000 ) ) ;
#194 = AXIS2_PLACEMENT_3D ( 'NONE', #193, #192, #191 ) ;
#195 = CARTESIAN_POINT ( 'NONE',  ( -27.29998022710108800, -4.336808689942017700E-015, 0.0000000000000000000 ) ) ;
#196 = CYLINDRICAL_SURFACE ( 'NONE', #218, 12.69999999999999900 ) ;
#197 = CIRCLE ( 'NONE', #179, 12.69999999999999900 ) ;
#198 = FACE_OUTER_BOUND ( 'NONE', #22, .T. ) ;
#199 = AXIS2_PLACEMENT_3D ( 'NONE', #117, #116, #115 ) ;
#200 = AXIS2_PLACEMENT_3D ( 'NONE', #195, #204, #137 ) ;
#201 = DIRECTION ( 'NONE',  ( 1.899295172748517300E-016, -1.000000000000000000, 0.0000000000000000000 ) ) ;
#202 = DIRECTION ( 'NONE',  ( -1.000000000000000000, -1.836970198721029700E-016, -0.0000000000000000000 ) ) ;
#203 = CARTESIAN_POINT ( 'NONE',  ( -1.026711182433308200, 4.910751890444193200E-016, 0.0000000000000000000 ) ) ;
#204 = DIRECTION ( 'NONE',  ( -1.000000000000000000, -1.836970198721029700E-016, -0.0000000000000000000 ) ) ;
#205 =( LENGTH_UNIT ( ) NAMED_UNIT ( * ) SI_UNIT ( .MILLI., .METRE. ) );
#206 = DIRECTION ( 'NONE',  ( -1.000000000000000000, -1.836970198721029700E-016, -0.0000000000000000000 ) ) ;
#207 = CARTESIAN_POINT ( 'NONE',  ( 0.8852898261960040500, 8.423040763220788700E-016, 0.0000000000000000000 ) ) ;
#208 = DIRECTION ( 'NONE',  ( -1.878145495644181100E-016, 1.000000000000000000, 0.0000000000000000000 ) ) ;
#209 = CIRCLE ( 'NONE', #101, 31.00000000000000000 ) ;
#210 = FACE_OUTER_BOUND ( 'NONE', #318, .T. ) ;
#211 = DIRECTION ( 'NONE',  ( 1.899295172748518000E-016, -1.000000000000000000, 0.0000000000000000000 ) ) ;
#212 = AXIS2_PLACEMENT_3D ( 'NONE', #171, #173, #172 ) ;
#213 = DIRECTION ( 'NONE',  ( 1.878145495644181100E-016, -1.000000000000000000, 0.0000000000000000000 ) ) ;
#214 = DIRECTION ( 'NONE',  ( -1.000000000000000000, -1.836970198721029700E-016, -0.0000000000000000000 ) ) ;
#215 = CARTESIAN_POINT ( 'NONE',  ( -0.8852898261959992700, 5.170538707314839800E-016, 0.0000000000000000000 ) ) ;
#216 = CONICAL_SURFACE ( 'NONE', #159, 12.55857864376268500, 0.7853981633974545000 ) ;
#217 = DIRECTION ( 'NONE',  ( 1.000000000000000000, 1.836970198721029700E-016, 0.0000000000000000000 ) ) ;
#218 = AXIS2_PLACEMENT_3D ( 'NONE', #109, #110, #235 ) ;
#219 = FACE_OUTER_BOUND ( 'NONE', #24, .T. ) ;
#220 = DIRECTION ( 'NONE',  ( 1.707404996040164500E-016, -1.000000000000000000, 0.0000000000000000000 ) ) ;
#221 = DIRECTION ( 'NONE',  ( -1.000000000000000000, -1.836970198721029700E-016, -0.0000000000000000000 ) ) ;
#222 = CONICAL_SURFACE ( 'NONE', #135, 12.69999999999999900, 0.7853981633974513900 ) ;
#223 = CIRCLE ( 'NONE', #164, 12.69999999999999900 ) ;
#224 = CARTESIAN_POINT ( 'NONE',  ( -3.700000000000000200, 0.0000000000000000000, 0.0000000000000000000 ) ) ;
#225 = AXIS2_PLACEMENT_3D ( 'NONE', #224, #221, #220 ) ;
#226 = CIRCLE ( 'NONE', #163, 12.55857864376269000 ) ;
#227 = DIRECTION ( 'NONE',  ( -1.000000000000000000, -1.836970198721029700E-016, -0.0000000000000000000 ) ) ;
#228 = CARTESIAN_POINT ( 'NONE',  ( -0.8852898261959992700, 5.170538707314839800E-016, 0.0000000000000000000 ) ) ;
#229 = FACE_OUTER_BOUND ( 'NONE', #26, .T. ) ;
#230 = FACE_OUTER_BOUND ( 'NONE', #65, .T. ) ;
#231 = AXIS2_PLACEMENT_3D ( 'NONE', #92, #234, #233 ) ;
#232 = CIRCLE ( 'NONE', #122, 31.00000000000000000 ) ;
#233 = DIRECTION ( 'NONE',  ( 1.836970198721029700E-016, -1.000000000000000000, 0.0000000000000000000 ) ) ;
#234 = DIRECTION ( 'NONE',  ( -1.000000000000000000, -1.836970198721029700E-016, -0.0000000000000000000 ) ) ;
#235 = DIRECTION ( 'NONE',  ( 1.707404996040164500E-016, -1.000000000000000000, 0.0000000000000000000 ) ) ;
#236 = DIRECTION ( 'NONE',  ( 0.7071067811865452400, 0.7071067811865497900, 0.0000000000000000000 ) ) ;
#237 = VECTOR ( 'NONE', #236, 1000.000000000000000 ) ;
#238 = CARTESIAN_POINT ( 'NONE',  ( -0.8852898261960016100, 12.69999999999999900, 0.0000000000000000000 ) ) ;
#239 = LINE ( 'NONE', #238, #237 ) ;
#240 = CARTESIAN_POINT ( 'NONE',  ( -0.8852898261959992700, 5.170538707314839800E-016, 0.0000000000000000000 ) ) ;
#241 = PERSON_AND_ORGANIZATION_ROLE ( 'creator' ) ;
#242 = PERSON_AND_ORGANIZATION ( #285, #257 ) ;
#243 = CC_DESIGN_PERSON_AND_ORGANIZATION_ASSIGNMENT ( #291, #290, ( #289 ) ) ;
#244 = PERSON_AND_ORGANIZATION_ROLE ( 'creator' ) ;
#245 = PERSON_AND_ORGANIZATION ( #285, #257 ) ;
#246 = CC_DESIGN_APPROVAL ( #254, ( #311 ) ) ;
#247 = APPROVAL_DATE_TIME ( #248, #254 ) ;
#248 = DATE_AND_TIME ( #249, #250 ) ;
#249 = CALENDAR_DATE ( 2012, 28, 9 ) ;
#250 = LOCAL_TIME ( 12, 16, 59.00000000000000000, #251 ) ;
#251 = COORDINATED_UNIVERSAL_TIME_OFFSET ( 5, 0, .BEHIND. ) ;
#252 = APPROVAL_PERSON_ORGANIZATION ( #310, #254, #253 ) ;
#253 = APPROVAL_ROLE ( '' ) ;
#254 = APPROVAL ( #309, 'UNSPECIFIED' ) ;
#255 = SHAPE_DEFINITION_REPRESENTATION ( #256, #174 ) ;
#256 = PRODUCT_DEFINITION_SHAPE ( 'NONE', 'NONE',  #262 ) ;
#257 = ORGANIZATION ( 'UNSPECIFIED', 'UNSPECIFIED', '' ) ;
#258 = APPROVAL_ROLE ( '' ) ;
#259 = APPROVAL ( #260, 'UNSPECIFIED' ) ;
#260 = APPROVAL_STATUS ( 'not_yet_approved' ) ;
#261 = PERSON_AND_ORGANIZATION ( #285, #257 ) ;
#262 = PRODUCT_DEFINITION ( 'UNKNOWN', '', #311, #263 ) ;
#263 = DESIGN_CONTEXT ( 'detailed design', #265, 'design' ) ;
#264 = APPLICATION_PROTOCOL_DEFINITION ( 'international standard', 'config_control_design', 1994, #265 ) ;
#265 = APPLICATION_CONTEXT ( 'configuration controlled 3d designs of mechanical parts and assemblies' ) ;
#266 = LOCAL_TIME ( 12, 16, 59.00000000000000000, #267 ) ;
#267 = COORDINATED_UNIVERSAL_TIME_OFFSET ( 5, 0, .BEHIND. ) ;
#268 = CC_DESIGN_PERSON_AND_ORGANIZATION_ASSIGNMENT ( #270, #269, ( #271 ) ) ;
#269 = PERSON_AND_ORGANIZATION_ROLE ( 'classification_officer' ) ;
#270 = PERSON_AND_ORGANIZATION ( #285, #257 ) ;
#271 = SECURITY_CLASSIFICATION ( '', '', #272 ) ;
#272 = SECURITY_CLASSIFICATION_LEVEL ( 'unclassified' ) ;
#273 = CC_DESIGN_PERSON_AND_ORGANIZATION_ASSIGNMENT ( #275, #274, ( #311 ) ) ;
#274 = PERSON_AND_ORGANIZATION_ROLE ( 'design_supplier' ) ;
#275 = PERSON_AND_ORGANIZATION ( #285, #257 ) ;
#276 = CC_DESIGN_PERSON_AND_ORGANIZATION_ASSIGNMENT ( #245, #244, ( #311 ) ) ;
#277 = CALENDAR_DATE ( 2012, 28, 9 ) ;
#278 = LOCAL_TIME ( 12, 16, 59.00000000000000000, #279 ) ;
#279 = COORDINATED_UNIVERSAL_TIME_OFFSET ( 5, 0, .BEHIND. ) ;
#280 = CC_DESIGN_PERSON_AND_ORGANIZATION_ASSIGNMENT ( #242, #241, ( #262 ) ) ;
#281 = CC_DESIGN_APPROVAL ( #259, ( #262 ) ) ;
#282 = APPROVAL_DATE_TIME ( #283, #259 ) ;
#283 = DATE_AND_TIME ( #284, #286 ) ;
#284 = CALENDAR_DATE ( 2012, 28, 9 ) ;
#285 = PERSON ( 'UNSPECIFIED', 'UNSPECIFIED', 'UNSPECIFIED', ('UNSPECIFIED'), ('UNSPECIFIED'), ('UNSPECIFIED') ) ;
#286 = LOCAL_TIME ( 12, 16, 59.00000000000000000, #287 ) ;
#287 = COORDINATED_UNIVERSAL_TIME_OFFSET ( 5, 0, .BEHIND. ) ;
#288 = APPROVAL_PERSON_ORGANIZATION ( #261, #259, #258 ) ;
#289 = PRODUCT ( '25014-E0W', '25014-E0W', '', ( #327 ) ) ;
#290 = PERSON_AND_ORGANIZATION_ROLE ( 'design_owner' ) ;
#291 = PERSON_AND_ORGANIZATION ( #285, #257 ) ;
#292 = PRODUCT_RELATED_PRODUCT_CATEGORY ( 'detail', '', ( #289 ) ) ;
#293 = CC_DESIGN_SECURITY_CLASSIFICATION ( #271, ( #311 ) ) ;
#294 = CC_DESIGN_APPROVAL ( #302, ( #271 ) ) ;
#295 = APPROVAL_DATE_TIME ( #296, #302 ) ;
#296 = DATE_AND_TIME ( #297, #298 ) ;
#297 = CALENDAR_DATE ( 2012, 28, 9 ) ;
#298 = LOCAL_TIME ( 12, 16, 59.00000000000000000, #299 ) ;
#299 = COORDINATED_UNIVERSAL_TIME_OFFSET ( 5, 0, .BEHIND. ) ;
#300 = APPROVAL_PERSON_ORGANIZATION ( #304, #302, #301 ) ;
#301 = APPROVAL_ROLE ( '' ) ;
#302 = APPROVAL ( #303, 'UNSPECIFIED' ) ;
#303 = APPROVAL_STATUS ( 'not_yet_approved' ) ;
#304 = PERSON_AND_ORGANIZATION ( #285, #257 ) ;
#305 = CC_DESIGN_DATE_AND_TIME_ASSIGNMENT ( #307, #306, ( #271 ) ) ;
#306 = DATE_TIME_ROLE ( 'classification_date' ) ;
#307 = DATE_AND_TIME ( #308, #266 ) ;
#308 = CALENDAR_DATE ( 2012, 28, 9 ) ;
#309 = APPROVAL_STATUS ( 'not_yet_approved' ) ;
#310 = PERSON_AND_ORGANIZATION ( #285, #257 ) ;
#311 = PRODUCT_DEFINITION_FORMATION_WITH_SPECIFIED_SOURCE ( 'ANY', '', #289, .NOT_KNOWN. ) ;
#312 = CC_DESIGN_DATE_AND_TIME_ASSIGNMENT ( #314, #313, ( #262 ) ) ;
#313 = DATE_TIME_ROLE ( 'creation_date' ) ;
#314 = DATE_AND_TIME ( #277, #278 ) ;
#315 = ORIENTED_EDGE ( 'NONE', *, *, #17, .T. ) ;
#316 = VERTEX_POINT ( 'NONE', #168 ) ;
#317 = ORIENTED_EDGE ( 'NONE', *, *, #66, .T. ) ;
#318 = EDGE_LOOP ( 'NONE', ( #321, #8, #18, #1 ) ) ;
#319 = EDGE_CURVE ( 'NONE', #71, #69, #148, .T. ) ;
#320 = ORIENTED_EDGE ( 'NONE', *, *, #74, .T. ) ;
#321 = ORIENTED_EDGE ( 'NONE', *, *, #57, .F. ) ;
#322 = ORIENTED_EDGE ( 'NONE', *, *, #44, .T. ) ;
#323 = ADVANCED_FACE ( 'NONE', ( #143 ), #216, .T. ) ;
#324 = ORIENTED_EDGE ( 'NONE', *, *, #42, .T. ) ;
#325 = APPLICATION_PROTOCOL_DEFINITION ( 'international standard', 'config_control_design', 1994, #326 ) ;
#326 = APPLICATION_CONTEXT ( 'configuration controlled 3d designs of mechanical parts and assemblies' ) ;
#327 = MECHANICAL_CONTEXT ( 'NONE', #326, 'mechanical' ) ;
ENDSEC;
END-ISO-10303-21;
