ISO-10303-21;
HEADER;
FILE_DESCRIPTION (( 'STEP AP203' ),
    '1' );
FILE_NAME ('20223-E0W.STEP',
    '2009-09-14T20:10:16',
    ( 'Admin' ),
    ( 'Thorlabs, Inc.' ),
    'SwSTEP 2.0',
    'SolidWorks 2007',
    '' );
FILE_SCHEMA (( 'CONFIG_CONTROL_DESIGN' ));
ENDSEC;

DATA;
#1 = ORIENTED_EDGE ( 'NONE', *, *, #20, .F. ) ;
#2 = ORIENTED_EDGE ( 'NONE', *, *, #217, .F. ) ;
#3 = ORIENTED_EDGE ( 'NONE', *, *, #39, .T. ) ;
#4 = ADVANCED_FACE ( 'NONE', ( #32 ), #30, .F. ) ;
#5 = ORIENTED_EDGE ( 'NONE', *, *, #219, .T. ) ;
#6 = ORIENTED_EDGE ( 'NONE', *, *, #20, .T. ) ;
#7 = EDGE_CURVE ( 'NONE', #10, #215, #34, .T. ) ;
#8 = ORIENTED_EDGE ( 'NONE', *, *, #225, .T. ) ;
#9 = VERTEX_POINT ( 'NONE', #52 ) ;
#10 = VERTEX_POINT ( 'NONE', #53 ) ;
#11 = ORIENTED_EDGE ( 'NONE', *, *, #7, .T. ) ;
#12 = ORIENTED_EDGE ( 'NONE', *, *, #213, .F. ) ;
#13 = CLOSED_SHELL ( 'NONE', ( #211, #22, #4, #208, #220, #226 ) ) ;
#14 = EDGE_LOOP ( 'NONE', ( #15, #6, #3 ) ) ;
#15 = ORIENTED_EDGE ( 'NONE', *, *, #21, .F. ) ;
#16 = ORIENTED_EDGE ( 'NONE', *, *, #21, .T. ) ;
#17 = ORIENTED_EDGE ( 'NONE', *, *, #27, .T. ) ;
#18 = EDGE_LOOP ( 'NONE', ( #212, #216, #37, #28 ) ) ;
#19 = ORIENTED_EDGE ( 'NONE', *, *, #219, .F. ) ;
#20 = EDGE_CURVE ( 'NONE', #9, #35, #51, .T. ) ;
#21 = EDGE_CURVE ( 'NONE', #9, #218, #58, .T. ) ;
#22 = ADVANCED_FACE ( 'NONE', ( #59 ), #43, .T. ) ;
#23 = DIRECTION ( 'NONE',  ( 0.0000000000000000000, 1.000000000000000000, 2.210965429488668000E-016 ) ) ;
#24 = DIRECTION ( 'NONE',  ( -1.000000000000000000, 0.0000000000000000000, 0.0000000000000000000 ) ) ;
#25 = ORIENTED_EDGE ( 'NONE', *, *, #38, .F. ) ;
#26 = CARTESIAN_POINT ( 'NONE',  ( 0.0000000000000000000, 0.0000000000000000000, 6.000000000000000000 ) ) ;
#27 = EDGE_CURVE ( 'NONE', #214, #35, #61, .T. ) ;
#28 = ORIENTED_EDGE ( 'NONE', *, *, #27, .F. ) ;
#29 = CARTESIAN_POINT ( 'NONE',  ( 0.0000000000000000000, 0.0000000000000000000, 9.345999999999993000 ) ) ;
#30 = SPHERICAL_SURFACE ( 'NONE', #36, 7.845999999999992100 ) ;
#31 = EDGE_LOOP ( 'NONE', ( #25, #11, #12 ) ) ;
#32 = FACE_OUTER_BOUND ( 'NONE', #14, .T. ) ;
#33 = AXIS2_PLACEMENT_3D ( 'NONE', #26, #44, #46 ) ;
#34 = CIRCLE ( 'NONE', #33, 7.500000000000000000 ) ;
#35 = VERTEX_POINT ( 'NONE', #124 ) ;
#36 = AXIS2_PLACEMENT_3D ( 'NONE', #29, #24, #23 ) ;
#37 = ORIENTED_EDGE ( 'NONE', *, *, #39, .F. ) ;
#38 = EDGE_CURVE ( 'NONE', #10, #214, #70, .T. ) ;
#39 = EDGE_CURVE ( 'NONE', #35, #218, #125, .T. ) ;
#40 = DIRECTION ( 'NONE',  ( 1.000000000000000000, 0.0000000000000000000, 0.0000000000000000000 ) ) ;
#41 = CARTESIAN_POINT ( 'NONE',  ( 0.0000000000000000000, 0.0000000000000000000, 6.000000000000000000 ) ) ;
#42 = AXIS2_PLACEMENT_3D ( 'NONE', #41, #40, #45 ) ;
#43 = SPHERICAL_SURFACE ( 'NONE', #42, 7.500000000000000000 ) ;
#44 = DIRECTION ( 'NONE',  ( 1.000000000000000000, -1.224606353822377300E-016, -2.249491082733206400E-032 ) ) ;
#45 = DIRECTION ( 'NONE',  ( 0.0000000000000000000, -1.000000000000000000, -2.312964634635743000E-016 ) ) ;
#46 = DIRECTION ( 'NONE',  ( 1.224606353822377300E-016, 1.000000000000000000, 0.0000000000000000000 ) ) ;
#47 = DIRECTION ( 'NONE',  ( -1.224606353822377300E-016, -1.000000000000000000, 0.0000000000000000000 ) ) ;
#48 = DIRECTION ( 'NONE',  ( -1.000000000000000000, 1.224606353822377300E-016, 2.249491082733206400E-032 ) ) ;
#49 = CARTESIAN_POINT ( 'NONE',  ( 0.0000000000000000000, 0.0000000000000000000, 9.345999999999993000 ) ) ;
#50 = AXIS2_PLACEMENT_3D ( 'NONE', #49, #48, #47 ) ;
#51 = CIRCLE ( 'NONE', #50, 7.845999999999992100 ) ;
#52 = CARTESIAN_POINT ( 'NONE',  ( 0.0000000000000000000, 1.921652290418072600E-015, 1.500000000000001300 ) ) ;
#53 = CARTESIAN_POINT ( 'NONE',  ( 0.0000000000000000000, 9.184547653667831400E-016, -1.499999999999999600 ) ) ;
#54 = DIRECTION ( 'NONE',  ( 0.0000000000000000000, 0.0000000000000000000, -1.000000000000000000 ) ) ;
#55 = DIRECTION ( 'NONE',  ( 1.000000000000000000, 0.0000000000000000000, 0.0000000000000000000 ) ) ;
#56 = CARTESIAN_POINT ( 'NONE',  ( 0.0000000000000000000, 0.0000000000000000000, 9.345999999999993000 ) ) ;
#57 = AXIS2_PLACEMENT_3D ( 'NONE', #56, #55, #54 ) ;
#58 = CIRCLE ( 'NONE', #57, 7.845999999999992100 ) ;
#59 = FACE_OUTER_BOUND ( 'NONE', #31, .T. ) ;
#60 = CARTESIAN_POINT ( 'NONE',  ( 0.0000000000000000000, -6.350000000000001400, 1.499999999999998900 ) ) ;
#61 = LINE ( 'NONE', #60, #63 ) ;
#62 = DIRECTION ( 'NONE',  ( 0.0000000000000000000, -1.836909530733566100E-016, 1.000000000000000000 ) ) ;
#63 = VECTOR ( 'NONE', #62, 1000.000000000000000 ) ;
#64 = ORGANIZATION ( 'UNSPECIFIED', 'UNSPECIFIED', '' ) ;
#65 = PERSON ( 'UNSPECIFIED', 'UNSPECIFIED', 'UNSPECIFIED', ('UNSPECIFIED'), ('UNSPECIFIED'), ('UNSPECIFIED') ) ;
#66 = PRODUCT ( '20223-E0W', '20223-E0W', '', ( #67 ) ) ;
#67 = MECHANICAL_CONTEXT ( 'NONE', #69, 'mechanical' ) ;
#68 = APPLICATION_PROTOCOL_DEFINITION ( 'international standard', 'config_control_design', 1994, #69 ) ;
#69 = APPLICATION_CONTEXT ( 'configuration controlled 3d designs of mechanical parts and assemblies' ) ;
#70 = CIRCLE ( 'NONE', #117, 7.500000000000000000 ) ;
#71 = CARTESIAN_POINT ( 'NONE',  ( 0.0000000000000000000, 0.0000000000000000000, 9.345999999999993000 ) ) ;
#72 = SPHERICAL_SURFACE ( 'NONE', #130, 7.845999999999992100 ) ;
#73 = FACE_OUTER_BOUND ( 'NONE', #18, .T. ) ;
#74 = DIRECTION ( 'NONE',  ( 1.000000000000000000, 0.0000000000000000000, 0.0000000000000000000 ) ) ;
#75 = AXIS2_PLACEMENT_3D ( 'NONE', #140, #89, #88 ) ;
#76 = LOCAL_TIME ( 16, 10, 16.00000000000000000, #77 ) ;
#77 = COORDINATED_UNIVERSAL_TIME_OFFSET ( 5, 0, .BEHIND. ) ;
#78 = CC_DESIGN_PERSON_AND_ORGANIZATION_ASSIGNMENT ( #80, #79, ( #157 ) ) ;
#79 = PERSON_AND_ORGANIZATION_ROLE ( 'creator' ) ;
#80 = PERSON_AND_ORGANIZATION ( #65, #64 ) ;
#81 = CC_DESIGN_APPROVAL ( #154, ( #157 ) ) ;
#82 = APPROVAL_DATE_TIME ( #83, #154 ) ;
#83 = DATE_AND_TIME ( #84, #85 ) ;
#84 = CALENDAR_DATE ( 2009, 14, 9 ) ;
#85 = LOCAL_TIME ( 16, 10, 16.00000000000000000, #86 ) ;
#86 = COORDINATED_UNIVERSAL_TIME_OFFSET ( 5, 0, .BEHIND. ) ;
#87 = APPROVAL_PERSON_ORGANIZATION ( #156, #154, #153 ) ;
#88 = DIRECTION ( 'NONE',  ( 0.0000000000000000000, -1.000000000000000000, -1.365923996832131400E-016 ) ) ;
#89 = DIRECTION ( 'NONE',  ( 0.0000000000000000000, -1.836909530733566100E-016, 1.000000000000000000 ) ) ;
#90 = CARTESIAN_POINT ( 'NONE',  ( 0.0000000000000000000, 0.0000000000000000000, 0.0000000000000000000 ) ) ;
#91 = AXIS2_PLACEMENT_3D ( 'NONE', #90, #114, #74 ) ;
#92 = SHAPE_DEFINITION_REPRESENTATION ( #136, #93 ) ;
#93 = ADVANCED_BREP_SHAPE_REPRESENTATION ( '20223-E0W', ( #210, #91 ), #94 ) ;
#94 =( GEOMETRIC_REPRESENTATION_CONTEXT ( 3 ) GLOBAL_UNCERTAINTY_ASSIGNED_CONTEXT ( ( #107 ) ) GLOBAL_UNIT_ASSIGNED_CONTEXT ( ( #110, #109, #108 ) ) REPRESENTATION_CONTEXT ( 'NONE', 'WORKASPACE' ) );
#95 = SPHERICAL_SURFACE ( 'NONE', #152, 7.500000000000000000 ) ;
#96 = FACE_OUTER_BOUND ( 'NONE', #221, .T. ) ;
#97 = DIRECTION ( 'NONE',  ( 0.0000000000000000000, -1.000000000000000000, -1.365923996832131400E-016 ) ) ;
#98 = DIRECTION ( 'NONE',  ( 0.0000000000000000000, -1.836909530733566100E-016, 1.000000000000000000 ) ) ;
#99 = CARTESIAN_POINT ( 'NONE',  ( 0.0000000000000000000, -5.947205114572337000E-016, 4.737614599450269600 ) ) ;
#100 = AXIS2_PLACEMENT_3D ( 'NONE', #99, #98, #97 ) ;
#101 = CIRCLE ( 'NONE', #100, 6.350000000000001400 ) ;
#102 = CARTESIAN_POINT ( 'NONE',  ( 0.0000000000000000000, 0.0000000000000000000, 6.000000000000000000 ) ) ;
#103 = CARTESIAN_POINT ( 'NONE',  ( 7.776250346772097400E-016, 6.350000000000002300, 2.009072789438528500 ) ) ;
#104 = CARTESIAN_POINT ( 'NONE',  ( 0.0000000000000000000, -6.350000000000001400, 2.009072789438525900 ) ) ;
#105 = DIRECTION ( 'NONE',  ( 0.0000000000000000000, -1.000000000000000000, -2.048885995248196700E-016 ) ) ;
#106 = DIRECTION ( 'NONE',  ( -1.000000000000000000, 0.0000000000000000000, 0.0000000000000000000 ) ) ;
#107 = UNCERTAINTY_MEASURE_WITH_UNIT (LENGTH_MEASURE( 1.000000000000000100E-005 ), #110, 'distance_accuracy_value', 'NONE');
#108 =( NAMED_UNIT ( * ) SI_UNIT ( $, .STERADIAN. ) SOLID_ANGLE_UNIT ( ) );
#109 =( NAMED_UNIT ( * ) PLANE_ANGLE_UNIT ( ) SI_UNIT ( $, .RADIAN. ) );
#110 =( LENGTH_UNIT ( ) NAMED_UNIT ( * ) SI_UNIT ( .MILLI., .METRE. ) );
#111 = DIRECTION ( 'NONE',  ( 0.0000000000000000000, -1.000000000000000000, -1.707404996040164000E-016 ) ) ;
#112 = DIRECTION ( 'NONE',  ( 0.0000000000000000000, -1.836909530733566100E-016, 1.000000000000000000 ) ) ;
#113 = CARTESIAN_POINT ( 'NONE',  ( 0.0000000000000000000, 0.0000000000000000000, 1.500000000000000000 ) ) ;
#114 = DIRECTION ( 'NONE',  ( 0.0000000000000000000, 0.0000000000000000000, 1.000000000000000000 ) ) ;
#115 = DIRECTION ( 'NONE',  ( 0.0000000000000000000, 0.0000000000000000000, 1.000000000000000000 ) ) ;
#116 = DIRECTION ( 'NONE',  ( -1.000000000000000000, 0.0000000000000000000, 0.0000000000000000000 ) ) ;
#117 = AXIS2_PLACEMENT_3D ( 'NONE', #139, #116, #115 ) ;
#118 = DIRECTION ( 'NONE',  ( 0.0000000000000000000, -1.836909530733566100E-016, 1.000000000000000000 ) ) ;
#119 = CARTESIAN_POINT ( 'NONE',  ( 0.0000000000000000000, -9.351206587567520800E-017, 2.009072789438526700 ) ) ;
#120 = AXIS2_PLACEMENT_3D ( 'NONE', #119, #118, #105 ) ;
#121 = DIRECTION ( 'NONE',  ( 0.0000000000000000000, -1.000000000000000000, -1.707404996040164000E-016 ) ) ;
#122 = DIRECTION ( 'NONE',  ( 0.0000000000000000000, -1.836909530733566100E-016, 1.000000000000000000 ) ) ;
#123 = CIRCLE ( 'NONE', #120, 6.350000000000002300 ) ;
#124 = CARTESIAN_POINT ( 'NONE',  ( -7.776250346772100300E-016, -6.350000000000002300, 4.737614599450268700 ) ) ;
#125 = CIRCLE ( 'NONE', #75, 6.350000000000001400 ) ;
#126 = FACE_OUTER_BOUND ( 'NONE', #209, .T. ) ;
#127 = CARTESIAN_POINT ( 'NONE',  ( 0.0000000000000000000, 0.0000000000000000000, 1.500000000000000000 ) ) ;
#128 = AXIS2_PLACEMENT_3D ( 'NONE', #127, #122, #121 ) ;
#129 = DIRECTION ( 'NONE',  ( 0.0000000000000000000, 1.000000000000000000, 2.210965429488668000E-016 ) ) ;
#130 = AXIS2_PLACEMENT_3D ( 'NONE', #71, #106, #129 ) ;
#131 = CARTESIAN_POINT ( 'NONE',  ( 0.0000000000000000000, 6.350000000000002300, 4.737614599450270500 ) ) ;
#132 = DIRECTION ( 'NONE',  ( 0.0000000000000000000, -1.836909530733566100E-016, 1.000000000000000000 ) ) ;
#133 = VECTOR ( 'NONE', #132, 1000.000000000000000 ) ;
#134 = CARTESIAN_POINT ( 'NONE',  ( 7.776250346772097400E-016, 6.350000000000001400, 1.500000000000001100 ) ) ;
#135 = LINE ( 'NONE', #134, #133 ) ;
#136 = PRODUCT_DEFINITION_SHAPE ( 'NONE', 'NONE',  #157 ) ;
#137 = PRODUCT_RELATED_PRODUCT_CATEGORY ( 'detail', '', ( #66 ) ) ;
#138 = CC_DESIGN_SECURITY_CLASSIFICATION ( #184, ( #203 ) ) ;
#139 = CARTESIAN_POINT ( 'NONE',  ( 0.0000000000000000000, 0.0000000000000000000, 6.000000000000000000 ) ) ;
#140 = CARTESIAN_POINT ( 'NONE',  ( 0.0000000000000000000, -5.947205114572337000E-016, 4.737614599450269600 ) ) ;
#141 = CYLINDRICAL_SURFACE ( 'NONE', #128, 6.350000000000001400 ) ;
#142 = CYLINDRICAL_SURFACE ( 'NONE', #143, 6.350000000000001400 ) ;
#143 = AXIS2_PLACEMENT_3D ( 'NONE', #113, #112, #111 ) ;
#144 = FACE_OUTER_BOUND ( 'NONE', #227, .T. ) ;
#145 = DIRECTION ( 'NONE',  ( 0.0000000000000000000, -1.000000000000000000, -2.048885995248196700E-016 ) ) ;
#146 = DIRECTION ( 'NONE',  ( 0.0000000000000000000, -1.836909530733566100E-016, 1.000000000000000000 ) ) ;
#147 = CARTESIAN_POINT ( 'NONE',  ( 0.0000000000000000000, -9.351206587567520800E-017, 2.009072789438526700 ) ) ;
#148 = AXIS2_PLACEMENT_3D ( 'NONE', #147, #146, #145 ) ;
#149 = CIRCLE ( 'NONE', #148, 6.350000000000002300 ) ;
#150 = DIRECTION ( 'NONE',  ( 0.0000000000000000000, -1.000000000000000000, -2.312964634635743000E-016 ) ) ;
#151 = DIRECTION ( 'NONE',  ( 1.000000000000000000, 0.0000000000000000000, 0.0000000000000000000 ) ) ;
#152 = AXIS2_PLACEMENT_3D ( 'NONE', #102, #151, #150 ) ;
#153 = APPROVAL_ROLE ( '' ) ;
#154 = APPROVAL ( #155, 'UNSPECIFIED' ) ;
#155 = APPROVAL_STATUS ( 'not_yet_approved' ) ;
#156 = PERSON_AND_ORGANIZATION ( #65, #64 ) ;
#157 = PRODUCT_DEFINITION ( 'UNKNOWN', '', #203, #158 ) ;
#158 = DESIGN_CONTEXT ( 'detailed design', #160, 'design' ) ;
#159 = APPLICATION_PROTOCOL_DEFINITION ( 'international standard', 'config_control_design', 1994, #160 ) ;
#160 = APPLICATION_CONTEXT ( 'configuration controlled 3d designs of mechanical parts and assemblies' ) ;
#161 = CC_DESIGN_PERSON_AND_ORGANIZATION_ASSIGNMENT ( #163, #162, ( #66 ) ) ;
#162 = PERSON_AND_ORGANIZATION_ROLE ( 'design_owner' ) ;
#163 = PERSON_AND_ORGANIZATION ( #65, #64 ) ;
#164 = CC_DESIGN_APPROVAL ( #172, ( #184 ) ) ;
#165 = APPROVAL_DATE_TIME ( #166, #172 ) ;
#166 = DATE_AND_TIME ( #167, #168 ) ;
#167 = CALENDAR_DATE ( 2009, 14, 9 ) ;
#168 = LOCAL_TIME ( 16, 10, 16.00000000000000000, #169 ) ;
#169 = COORDINATED_UNIVERSAL_TIME_OFFSET ( 5, 0, .BEHIND. ) ;
#170 = APPROVAL_PERSON_ORGANIZATION ( #174, #172, #171 ) ;
#171 = APPROVAL_ROLE ( '' ) ;
#172 = APPROVAL ( #173, 'UNSPECIFIED' ) ;
#173 = APPROVAL_STATUS ( 'not_yet_approved' ) ;
#174 = PERSON_AND_ORGANIZATION ( #65, #64 ) ;
#175 = CC_DESIGN_DATE_AND_TIME_ASSIGNMENT ( #177, #176, ( #184 ) ) ;
#176 = DATE_TIME_ROLE ( 'classification_date' ) ;
#177 = DATE_AND_TIME ( #178, #179 ) ;
#178 = CALENDAR_DATE ( 2009, 14, 9 ) ;
#179 = LOCAL_TIME ( 16, 10, 16.00000000000000000, #180 ) ;
#180 = COORDINATED_UNIVERSAL_TIME_OFFSET ( 5, 0, .BEHIND. ) ;
#181 = CC_DESIGN_PERSON_AND_ORGANIZATION_ASSIGNMENT ( #183, #182, ( #184 ) ) ;
#182 = PERSON_AND_ORGANIZATION_ROLE ( 'classification_officer' ) ;
#183 = PERSON_AND_ORGANIZATION ( #65, #64 ) ;
#184 = SECURITY_CLASSIFICATION ( '', '', #185 ) ;
#185 = SECURITY_CLASSIFICATION_LEVEL ( 'unclassified' ) ;
#186 = CC_DESIGN_PERSON_AND_ORGANIZATION_ASSIGNMENT ( #188, #187, ( #203 ) ) ;
#187 = PERSON_AND_ORGANIZATION_ROLE ( 'design_supplier' ) ;
#188 = PERSON_AND_ORGANIZATION ( #65, #64 ) ;
#189 = CC_DESIGN_PERSON_AND_ORGANIZATION_ASSIGNMENT ( #191, #190, ( #203 ) ) ;
#190 = PERSON_AND_ORGANIZATION_ROLE ( 'creator' ) ;
#191 = PERSON_AND_ORGANIZATION ( #65, #64 ) ;
#192 = CC_DESIGN_APPROVAL ( #200, ( #203 ) ) ;
#193 = APPROVAL_DATE_TIME ( #194, #200 ) ;
#194 = DATE_AND_TIME ( #195, #196 ) ;
#195 = CALENDAR_DATE ( 2009, 14, 9 ) ;
#196 = LOCAL_TIME ( 16, 10, 16.00000000000000000, #197 ) ;
#197 = COORDINATED_UNIVERSAL_TIME_OFFSET ( 5, 0, .BEHIND. ) ;
#198 = APPROVAL_PERSON_ORGANIZATION ( #202, #200, #199 ) ;
#199 = APPROVAL_ROLE ( '' ) ;
#200 = APPROVAL ( #201, 'UNSPECIFIED' ) ;
#201 = APPROVAL_STATUS ( 'not_yet_approved' ) ;
#202 = PERSON_AND_ORGANIZATION ( #65, #64 ) ;
#203 = PRODUCT_DEFINITION_FORMATION_WITH_SPECIFIED_SOURCE ( 'ANY', '', #66, .NOT_KNOWN. ) ;
#204 = CC_DESIGN_DATE_AND_TIME_ASSIGNMENT ( #206, #205, ( #157 ) ) ;
#205 = DATE_TIME_ROLE ( 'creation_date' ) ;
#206 = DATE_AND_TIME ( #207, #76 ) ;
#207 = CALENDAR_DATE ( 2009, 14, 9 ) ;
#208 = ADVANCED_FACE ( 'NONE', ( #126 ), #72, .F. ) ;
#209 = EDGE_LOOP ( 'NONE', ( #1, #16, #5 ) ) ;
#210 = MANIFOLD_SOLID_BREP ( 'NONE', #13 ) ;
#211 = ADVANCED_FACE ( 'NONE', ( #73 ), #141, .T. ) ;
#212 = ORIENTED_EDGE ( 'NONE', *, *, #213, .T. ) ;
#213 = EDGE_CURVE ( 'NONE', #214, #215, #123, .T. ) ;
#214 = VERTEX_POINT ( 'NONE', #104 ) ;
#215 = VERTEX_POINT ( 'NONE', #103 ) ;
#216 = ORIENTED_EDGE ( 'NONE', *, *, #217, .T. ) ;
#217 = EDGE_CURVE ( 'NONE', #215, #218, #135, .T. ) ;
#218 = VERTEX_POINT ( 'NONE', #131 ) ;
#219 = EDGE_CURVE ( 'NONE', #218, #35, #101, .T. ) ;
#220 = ADVANCED_FACE ( 'NONE', ( #96 ), #95, .T. ) ;
#221 = EDGE_LOOP ( 'NONE', ( #222, #223, #224 ) ) ;
#222 = ORIENTED_EDGE ( 'NONE', *, *, #7, .F. ) ;
#223 = ORIENTED_EDGE ( 'NONE', *, *, #38, .T. ) ;
#224 = ORIENTED_EDGE ( 'NONE', *, *, #225, .F. ) ;
#225 = EDGE_CURVE ( 'NONE', #215, #214, #149, .T. ) ;
#226 = ADVANCED_FACE ( 'NONE', ( #144 ), #142, .T. ) ;
#227 = EDGE_LOOP ( 'NONE', ( #2, #8, #17, #19 ) ) ;
ENDSEC;
END-ISO-10303-21;
