ISO-10303-21;
HEADER;
FILE_DESCRIPTION (( 'STEP AP203' ),
    '1' );
FILE_NAME ('Web Model 55139_Default.step',
    '2019-10-28T12:53:36',
    ( '' ),
    ( '' ),
    'SwSTEP 2.0',
    'SolidWorks 2018',
    '' );
FILE_SCHEMA (( 'CONFIG_CONTROL_DESIGN' ));
ENDSEC;

DATA;
#1 = CARTESIAN_POINT ( 'NONE',  ( -7.849063055144563705, 0.0000000000000000000, -13.27243060367545624 ) ) ;
#2 = CARTESIAN_POINT ( 'NONE',  ( 5.845684631275408272, 18.47113286628015771, -1.147092139378367293 ) ) ;
#3 = EDGE_CURVE ( 'NONE', #42, #186, #197, .T. ) ;
#4 = CARTESIAN_POINT ( 'NONE',  ( -3.465455066643289950, 25.00000000000000000, -5.846116917581937855 ) ) ;
#5 = CARTESIAN_POINT ( 'NONE',  ( 0.0000000000000000000, 0.0000000000000000000, 0.0000000000000000000 ) ) ;
#6 = APPROVAL_STATUS ( 'not_yet_approved' ) ;
#7 = FACE_OUTER_BOUND ( 'NONE', #116, .T. ) ;
#8 = CARTESIAN_POINT ( 'NONE',  ( 5.556538854067704314, 0.0000000000000000000, -13.67130597806831105 ) ) ;
#9 = CARTESIAN_POINT ( 'NONE',  ( 5.736054685230929095, 18.47109819149035559, -1.608745224304126475 ) ) ;
#10 = DIRECTION ( 'NONE',  ( 0.0000000000000000000, -0.0000000000000000000, 1.000000000000000000 ) ) ;
#11 = CARTESIAN_POINT ( 'NONE',  ( 0.0000000000000000000, 25.00000000000000000, 0.0000000000000000000 ) ) ;
#12 = CIRCLE ( 'NONE', #161, 13.50000000000000000 ) ;
#13 = CARTESIAN_POINT ( 'NONE',  ( -7.046050177313516016, 17.41003324844702860, 13.71562546411195704 ) ) ;
#14 = CC_DESIGN_APPROVAL ( #202, ( #28 ) ) ;
#15 = ADVANCED_FACE ( 'NONE', ( #308 ), #274, .T. ) ;
#16 = CARTESIAN_POINT ( 'NONE',  ( 5.905183140973574218, 25.00000000000000000, 0.7852778209746015259 ) ) ;
#17 = SHAPE_DEFINITION_REPRESENTATION ( #221, #226 ) ;
#18 = CARTESIAN_POINT ( 'NONE',  ( 13.49411799025121361, 0.0000000000000000000, -0.4015089982465926410 ) ) ;
#19 = ORIENTED_EDGE ( 'NONE', *, *, #127, .T. ) ;
#20 = CARTESIAN_POINT ( 'NONE',  ( 5.905183140973574218, 18.47113286628013284, 0.7852778209746014149 ) ) ;
#21 = CIRCLE ( 'NONE', #142, 5.950000000000000178 ) ;
#22 = ORIENTED_EDGE ( 'NONE', *, *, #201, .F. ) ;
#23 = CARTESIAN_POINT ( 'NONE',  ( 13.26600497753899077, 0.0000000000000000000, -2.588915708860596077 ) ) ;
#24 = CARTESIAN_POINT ( 'NONE',  ( 13.49682684923051745, 17.41018179418325573, 0.7095211725694968719 ) ) ;
#25 = CALENDAR_DATE ( 2019, 28, 10 ) ;
#26 = CARTESIAN_POINT ( 'NONE',  ( 13.01834911596498578, 17.41040482269237444, -3.636620795850814325 ) ) ;
#27 = CARTESIAN_POINT ( 'NONE',  ( -6.048246187740020652, 18.47120519322462329, -3.099222464659435072 ) ) ;
#28 = SECURITY_CLASSIFICATION ( '', '', #298 ) ;
#29 = PRODUCT ( 'Web Model 55139_Default', 'Web Model 55139_Default', '', ( #166 ) ) ;
#30 = CARTESIAN_POINT ( 'NONE',  ( 13.43076450438025304, 0.0000000000000000000, -1.510734960313567132 ) ) ;
#31 = CARTESIAN_POINT ( 'NONE',  ( 13.49402803389370931, 17.41011948473438409, -0.4015064389155231228 ) ) ;
#32 = CARTESIAN_POINT ( 'NONE',  ( -3.465455066643289506, 18.47123753183235451, -5.846116917581936967 ) ) ;
#33 = CARTESIAN_POINT ( 'NONE',  ( 5.556538854067704314, 17.41018847376426493, -13.67130597806831105 ) ) ;
#34 = CARTESIAN_POINT ( 'NONE',  ( 13.26600497753899077, 17.41031235658628518, -2.588915708860596077 ) ) ;
#35 = CARTESIAN_POINT ( 'NONE',  ( 5.942128320907028360, 25.00000000000000000, -0.3472332392744947871 ) ) ;
#36 = CARTESIAN_POINT ( 'NONE',  ( -3.099222464659434628, 25.00000000000000000, 6.048246187740019764 ) ) ;
#37 = CARTESIAN_POINT ( 'NONE',  ( 6.359551731898752003, 17.41018847376426137, 13.31675008971910756 ) ) ;
#38 = CARTESIAN_POINT ( 'NONE',  ( 13.39646324160552027, 17.41031235658627452, 1.795590495627135352 ) ) ;
#39 = CALENDAR_DATE ( 2019, 28, 10 ) ;
#40 = CC_DESIGN_PERSON_AND_ORGANIZATION_ASSIGNMENT ( #313, #125, ( #28 ) ) ;
#41 = CARTESIAN_POINT ( 'NONE',  ( 0.0000000000000000000, 25.00000000000000000, 0.0000000000000000000 ) ) ;
#42 = VERTEX_POINT ( 'NONE', #82 ) ;
#43 = DIRECTION ( 'NONE',  ( 1.000000000000000000, 0.0000000000000000000, 0.0000000000000000000 ) ) ;
#44 = CARTESIAN_POINT ( 'NONE',  ( 13.21153798484062669, 17.41040482269237444, 2.856166765627355275 ) ) ;
#45 = CARTESIAN_POINT ( 'NONE',  ( 5.948921969141957256, 25.00000000000000000, 0.3065572922921326326 ) ) ;
#46 = CC_DESIGN_APPROVAL ( #231, ( #130 ) ) ;
#47 = CARTESIAN_POINT ( 'NONE',  ( 13.43076450438025304, 17.41018179418324863, -1.510734960313567132 ) ) ;
#48 = CARTESIAN_POINT ( 'NONE',  ( -13.27243060367545979, 17.41011948473438409, 7.849063055144563705 ) ) ;
#49 = ORIENTED_EDGE ( 'NONE', *, *, #3, .F. ) ;
#50 = CARTESIAN_POINT ( 'NONE',  ( 5.918792708309906558, 18.47118182718129020, -0.6719693776168567112 ) ) ;
#51 = AXIS2_PLACEMENT_3D ( 'NONE', #11, #137, #200 ) ;
#52 = CARTESIAN_POINT ( 'NONE',  ( -13.71562546411196060, 17.41011948473439119, -7.046050177313513352 ) ) ;
#53 = DATE_TIME_ROLE ( 'creation_date' ) ;
#54 = CARTESIAN_POINT ( 'NONE',  ( 13.49402803389370931, 0.0000000000000000000, -0.4015064389155231783 ) ) ;
#55 = CARTESIAN_POINT ( 'NONE',  ( -6.048246187740020652, 18.47120519322462329, -3.099222464659435072 ) ) ;
#56 = COORDINATED_UNIVERSAL_TIME_OFFSET ( 5, 0, .BEHIND. ) ;
#57 = CARTESIAN_POINT ( 'NONE',  ( 13.49402803389370931, 17.41011948473438409, -0.4015064389155231228 ) ) ;
#58 = APPLICATION_PROTOCOL_DEFINITION ( 'international standard', 'config_control_design', 1994, #73 ) ;
#59 = DATE_AND_TIME ( #25, #284 ) ;
#60 = EDGE_CURVE ( 'NONE', #186, #135, #21, .T. ) ;
#61 = ORIENTED_EDGE ( 'NONE', *, *, #201, .T. ) ;
#62 = CARTESIAN_POINT ( 'NONE',  ( 5.952234784414931923, 18.47120519322460197, -0.01899936270935967050 ) ) ;
#63 = CARTESIAN_POINT ( 'NONE',  ( 13.50510790540462125, 17.41011948473438409, -0.02912860810407242457 ) ) ;
#64 = APPROVAL_PERSON_ORGANIZATION ( #220, #236, #240 ) ;
#65 = PERSON_AND_ORGANIZATION_ROLE ( 'design_owner' ) ;
#66 = CARTESIAN_POINT ( 'NONE',  ( 5.824162938629987352, 25.00000000000000000, 1.252801106708467005 ) ) ;
#67 = CARTESIAN_POINT ( 'NONE',  ( 5.942128320907028360, 18.47120519322461263, -0.3472332392744947871 ) ) ;
#68 = EDGE_LOOP ( 'NONE', ( #230, #22 ) ) ;
#69 = CARTESIAN_POINT ( 'NONE',  ( -7.046050177313516016, 17.41003324844702860, 13.71562546411195704 ) ) ;
#70 = CARTESIAN_POINT ( 'NONE',  ( 13.01834911596498578, 17.41040482269237444, -3.636620795850814325 ) ) ;
#71 = CARTESIAN_POINT ( 'NONE',  ( -13.27243060367545979, 0.0000000000000000000, 7.849063055144563705 ) ) ;
#72 = CARTESIAN_POINT ( 'NONE',  ( -7.046050177313516016, 0.0000000000000000000, 13.71562546411195704 ) ) ;
#73 = APPLICATION_CONTEXT ( 'configuration controlled 3d designs of mechanical parts and assemblies' ) ;
#74 = PERSON ( 'UNSPECIFIED', 'UNSPECIFIED', 'UNSPECIFIED', ('UNSPECIFIED'), ('UNSPECIFIED'), ('UNSPECIFIED') ) ;
#75 = APPROVAL_STATUS ( 'not_yet_approved' ) ;
#76 = B_SPLINE_SURFACE_WITH_KNOTS ( 'NONE', 3, 3, ( 
 ( #54, #175, #268, #179 ),
 ( #296, #241, #96, #35 ),
 ( #244, #269, #156, #176 ),
 ( #154, #34, #100, #245 ),
 ( #199, #70, #9, #153 ),
 ( #102, #266, #297, #121 ),
 ( #8, #33, #198, #294 ),
 ( #151, #295, #32, #4 ),
 ( #193, #52, #55, #218 ),
 ( #71, #239, #194, #217 ),
 ( #72, #13, #132, #36 ),
 ( #300, #37, #277, #281 ),
 ( #222, #106, #227, #206 ),
 ( #164, #279, #136, #80 ),
 ( #160, #38, #20, #16 ),
 ( #255, #203, #165, #304 ),
 ( #204, #63, #62, #225 ),
 ( #109, #252, #85, #306 ) ),
 .UNSPECIFIED., .T., .F., .F.,
 ( 4, 1, 1, 1, 1, 2, 2, 2, 1, 1, 1, 1, 4 ),
 ( 4, 4 ),
 ( 0.0000000000000000000, 0.01249999999999995559, 0.02499999999999991118, 0.03750000000000008882, 0.05000000000000004441, 0.2500000000000000000, 0.5000000000000000000, 0.7500000000000000000, 0.9499999999999999556, 0.9625000000000000222, 0.9749999999999999778, 0.9875000000000000444, 1.000000000000000000 ),
 ( 0.0000000000000000000, 1.000000000000000000 ),
 .UNSPECIFIED. ) ;
#77 = B_SPLINE_CURVE_WITH_KNOTS ( 'NONE', 3,
 ( #138, #57, #216, #219 ),
 .UNSPECIFIED., .F., .F.,
 ( 4, 4 ),
 ( 0.0000000000000000000, 1.000000000000000000 ),
 .UNSPECIFIED. ) ;
#78 = PERSON_AND_ORGANIZATION ( #74, #152 ) ;
#79 = B_SPLINE_SURFACE_WITH_KNOTS ( 'NONE', 3, 3, ( 
 ( #283, #285, #87, #110 ),
 ( #120, #293, #67, #93 ),
 ( #30, #47, #50, #208 ),
 ( #23, #150, #2, #232 ),
 ( #235, #26, #192, #260 ),
 ( #94, #210, #169, #261 ),
 ( #172, #291, #262, #89 ),
 ( #1, #264, #118, #171 ),
 ( #95, #148, #27, #119 ),
 ( #191, #48, #115, #212 ),
 ( #187, #69, #287, #143 ),
 ( #312, #170, #189, #237 ),
 ( #265, #145, #310, #309 ),
 ( #167, #44, #211, #66 ),
 ( #233, #91, #117, #234 ),
 ( #289, #24, #188, #45 ),
 ( #290, #272, #123, #271 ),
 ( #174, #31, #178, #213 ) ),
 .UNSPECIFIED., .T., .F., .F.,
 ( 4, 1, 1, 1, 1, 2, 2, 2, 1, 1, 1, 1, 4 ),
 ( 4, 4 ),
 ( 0.0000000000000000000, 0.01249999999999995559, 0.02499999999999991118, 0.03750000000000008882, 0.05000000000000004441, 0.2500000000000000000, 0.5000000000000000000, 0.7500000000000000000, 0.9499999999999999556, 0.9625000000000000222, 0.9749999999999999778, 0.9875000000000000444, 1.000000000000000000 ),
 ( 0.0000000000000000000, 1.000000000000000000 ),
 .UNSPECIFIED. ) ;
#80 = CARTESIAN_POINT ( 'NONE',  ( 5.824162938629987352, 25.00000000000000000, 1.252801106708467005 ) ) ;
#81 = CC_DESIGN_PERSON_AND_ORGANIZATION_ASSIGNMENT ( #214, #270, ( #159 ) ) ;
#82 = CARTESIAN_POINT ( 'NONE',  ( -13.49411799025122249, 0.0000000000000000000, 0.4015089982467805463 ) ) ;
#83 = LOCAL_TIME ( 8, 53, 36.00000000000000000, #131 ) ;
#84 = CARTESIAN_POINT ( 'NONE',  ( 0.0000000000000000000, 25.00000000000000000, 0.0000000000000000000 ) ) ;
#85 = CARTESIAN_POINT ( 'NONE',  ( 5.947181552660980586, 18.47120519322460908, -0.1831163009919272167 ) ) ;
#86 = DIRECTION ( 'NONE',  ( 0.0000000000000000000, 1.000000000000000000, 0.0000000000000000000 ) ) ;
#87 = CARTESIAN_POINT ( 'NONE',  ( 5.947181552660980586, 18.47120519322460908, -0.1831163009919272167 ) ) ;
#88 = APPLICATION_PROTOCOL_DEFINITION ( 'international standard', 'config_control_design', 1994, #286 ) ;
#89 = CARTESIAN_POINT ( 'NONE',  ( 2.442754711529160794, 25.00000000000000000, -6.028033260724211750 ) ) ;
#90 = CC_DESIGN_SECURITY_CLASSIFICATION ( #28, ( #159 ) ) ;
#91 = CARTESIAN_POINT ( 'NONE',  ( 13.39646324160552027, 17.41031235658627452, 1.795590495627135352 ) ) ;
#92 = AXIS2_PLACEMENT_3D ( 'NONE', #5, #97, #157 ) ;
#93 = CARTESIAN_POINT ( 'NONE',  ( 5.942128320907028360, 25.00000000000000000, -0.3472332392744947871 ) ) ;
#94 = CARTESIAN_POINT ( 'NONE',  ( 11.05656216875276066, 0.0000000000000000000, -9.719715103107587240 ) ) ;
#95 = CARTESIAN_POINT ( 'NONE',  ( -13.71562546411196060, 0.0000000000000000000, -7.046050177313514240 ) ) ;
#96 = CARTESIAN_POINT ( 'NONE',  ( 5.942128320907028360, 18.47120519322461263, -0.3472332392744947871 ) ) ;
#97 = DIRECTION ( 'NONE',  ( 0.0000000000000000000, 1.000000000000000000, 0.0000000000000000000 ) ) ;
#98 = PERSON_AND_ORGANIZATION_ROLE ( 'design_supplier' ) ;
#99 = APPROVAL_STATUS ( 'not_yet_approved' ) ;
#100 = CARTESIAN_POINT ( 'NONE',  ( 5.845684631275408272, 18.47113286628015771, -1.147092139378367293 ) ) ;
#101 = LOCAL_TIME ( 8, 53, 36.00000000000000000, #168 ) ;
#102 = CARTESIAN_POINT ( 'NONE',  ( 11.05656216875276066, 0.0000000000000000000, -9.719715103107587240 ) ) ;
#103 = CARTESIAN_POINT ( 'NONE',  ( -13.49402803389371108, 17.41011948473438764, 0.4015064389155252877 ) ) ;
#104 = ORIENTED_EDGE ( 'NONE', *, *, #3, .T. ) ;
#105 = MANIFOLD_SOLID_BREP ( 'Loft1', #173 ) ;
#106 = CARTESIAN_POINT ( 'NONE',  ( 11.61489879475551845, 17.41037905595931434, 9.045139836655886612 ) ) ;
#107 = AXIS2_PLACEMENT_3D ( 'NONE', #41, #86, #257 ) ;
#108 = DIRECTION ( 'NONE',  ( 0.0000000000000000000, 1.000000000000000000, 0.0000000000000000000 ) ) ;
#109 = CARTESIAN_POINT ( 'NONE',  ( 13.49402803389370931, 0.0000000000000000000, -0.4015064389155231783 ) ) ;
#110 = CARTESIAN_POINT ( 'NONE',  ( 5.947181552660979698, 25.00000000000000000, -0.1831163009919272167 ) ) ;
#111 = VERTEX_POINT ( 'NONE', #18 ) ;
#112 = CARTESIAN_POINT ( 'NONE',  ( -5.947235414423220234, 25.00000000000000000, 0.1831178532187257568 ) ) ;
#113 =( NAMED_UNIT ( * ) PLANE_ANGLE_UNIT ( ) SI_UNIT ( $, .RADIAN. ) );
#114 = PERSON_AND_ORGANIZATION ( #74, #152 ) ;
#115 = CARTESIAN_POINT ( 'NONE',  ( -5.846116917581939632, 18.47120519322462329, 3.465455066643290394 ) ) ;
#116 = EDGE_LOOP ( 'NONE', ( #19, #104, #215, #254 ) ) ;
#117 = CARTESIAN_POINT ( 'NONE',  ( 5.905183140973574218, 18.47113286628013284, 0.7852778209746014149 ) ) ;
#118 = CARTESIAN_POINT ( 'NONE',  ( -3.465455066643289506, 18.47123753183235451, -5.846116917581936967 ) ) ;
#119 = CARTESIAN_POINT ( 'NONE',  ( -6.048246187740019764, 25.00000000000000000, -3.099222464659435072 ) ) ;
#120 = CARTESIAN_POINT ( 'NONE',  ( 13.48294816238279559, 0.0000000000000000000, -0.7738842697269738835 ) ) ;
#121 = CARTESIAN_POINT ( 'NONE',  ( 4.868640529677194628, 25.00000000000000000, -4.288916286341873274 ) ) ;
#122 = DATE_TIME_ROLE ( 'classification_date' ) ;
#123 = CARTESIAN_POINT ( 'NONE',  ( 5.952234784414931923, 18.47120519322460197, -0.01899936270935967050 ) ) ;
#124 = APPROVAL_DATE_TIME ( #259, #231 ) ;
#125 = PERSON_AND_ORGANIZATION_ROLE ( 'classification_officer' ) ;
#126 = EDGE_LOOP ( 'NONE', ( #249, #190 ) ) ;
#127 = EDGE_CURVE ( 'NONE', #111, #42, #12, .T. ) ;
#128 = PLANE ( 'NONE',  #146 ) ;
#129 = DIRECTION ( 'NONE',  ( 0.0000000000000000000, 1.000000000000000000, 0.0000000000000000000 ) ) ;
#130 = PRODUCT_DEFINITION ( 'UNKNOWN', '', #159, #144 ) ;
#131 = COORDINATED_UNIVERSAL_TIME_OFFSET ( 5, 0, .BEHIND. ) ;
#132 = CARTESIAN_POINT ( 'NONE',  ( -3.099222464659434628, 18.47123753183237582, 6.048246187740020652 ) ) ;
#133 = UNCERTAINTY_MEASURE_WITH_UNIT (LENGTH_MEASURE( 1.000000000000000082E-05 ), #141, 'distance_accuracy_value', 'NONE');
#134 = CALENDAR_DATE ( 2019, 28, 10 ) ;
#135 = VERTEX_POINT ( 'NONE', #224 ) ;
#136 = CARTESIAN_POINT ( 'NONE',  ( 5.824162938629987352, 18.47109819149034493, 1.252801106708467005 ) ) ;
#137 = DIRECTION ( 'NONE',  ( 0.0000000000000000000, 1.000000000000000000, 0.0000000000000000000 ) ) ;
#138 = CARTESIAN_POINT ( 'NONE',  ( 13.49411799025121361, 0.0000000000000000000, -0.4015089982465926410 ) ) ;
#139 = APPROVAL_DATE_TIME ( #205, #236 ) ;
#140 = CC_DESIGN_DATE_AND_TIME_ASSIGNMENT ( #280, #122, ( #28 ) ) ;
#141 =( LENGTH_UNIT ( ) NAMED_UNIT ( * ) SI_UNIT ( .MILLI., .METRE. ) );
#142 = AXIS2_PLACEMENT_3D ( 'NONE', #84, #108, #282 ) ;
#143 = CARTESIAN_POINT ( 'NONE',  ( -3.099222464659434628, 25.00000000000000000, 6.048246187740019764 ) ) ;
#144 = DESIGN_CONTEXT ( 'detailed design', #73, 'design' ) ;
#145 = CARTESIAN_POINT ( 'NONE',  ( 11.61489879475551845, 17.41037905595931434, 9.045139836655886612 ) ) ;
#146 = AXIS2_PLACEMENT_3D ( 'NONE', #238, #129, #10 ) ;
#147 = LOCAL_TIME ( 8, 53, 36.00000000000000000, #158 ) ;
#148 = CARTESIAN_POINT ( 'NONE',  ( -13.71562546411196060, 17.41011948473439119, -7.046050177313513352 ) ) ;
#149 = CC_DESIGN_DATE_AND_TIME_ASSIGNMENT ( #59, #53, ( #130 ) ) ;
#150 = CARTESIAN_POINT ( 'NONE',  ( 13.26600497753899077, 17.41031235658628518, -2.588915708860596077 ) ) ;
#151 = CARTESIAN_POINT ( 'NONE',  ( -7.849063055144563705, 0.0000000000000000000, -13.27243060367545624 ) ) ;
#152 = ORGANIZATION ( 'UNSPECIFIED', 'UNSPECIFIED', '' ) ;
#153 = CARTESIAN_POINT ( 'NONE',  ( 5.736054685230929984, 25.00000000000000000, -1.608745224304126475 ) ) ;
#154 = CARTESIAN_POINT ( 'NONE',  ( 13.26600497753899077, 0.0000000000000000000, -2.588915708860596077 ) ) ;
#155 = APPROVAL_ROLE ( '' ) ;
#156 = CARTESIAN_POINT ( 'NONE',  ( 5.918792708309906558, 18.47118182718129020, -0.6719693776168567112 ) ) ;
#157 = DIRECTION ( 'NONE',  ( 0.0000000000000000000, 0.0000000000000000000, 1.000000000000000000 ) ) ;
#158 = COORDINATED_UNIVERSAL_TIME_OFFSET ( 5, 0, .BEHIND. ) ;
#159 = PRODUCT_DEFINITION_FORMATION_WITH_SPECIFIED_SOURCE ( 'ANY', '', #29, .NOT_KNOWN. ) ;
#160 = CARTESIAN_POINT ( 'NONE',  ( 13.39646324160552027, 0.0000000000000000000, 1.795590495627135352 ) ) ;
#161 = AXIS2_PLACEMENT_3D ( 'NONE', #305, #182, #228 ) ;
#162 = ADVANCED_FACE ( 'NONE', ( #253 ), #79, .T. ) ;
#163 = FACE_OUTER_BOUND ( 'NONE', #68, .T. ) ;
#164 = CARTESIAN_POINT ( 'NONE',  ( 13.21153798484062669, 0.0000000000000000000, 2.856166765627355275 ) ) ;
#165 = CARTESIAN_POINT ( 'NONE',  ( 5.948921969141957256, 18.47118182718125468, 0.3065572922921326326 ) ) ;
#166 = MECHANICAL_CONTEXT ( 'NONE', #286, 'mechanical' ) ;
#167 = CARTESIAN_POINT ( 'NONE',  ( 13.21153798484062669, 0.0000000000000000000, 2.856166765627355275 ) ) ;
#168 = COORDINATED_UNIVERSAL_TIME_OFFSET ( 5, 0, .BEHIND. ) ;
#169 = CARTESIAN_POINT ( 'NONE',  ( 4.868640529677194628, 18.47110785401530464, -4.288916286341873274 ) ) ;
#170 = CARTESIAN_POINT ( 'NONE',  ( 6.359551731898752003, 17.41018847376426137, 13.31675008971910756 ) ) ;
#171 = CARTESIAN_POINT ( 'NONE',  ( -3.465455066643289950, 25.00000000000000000, -5.846116917581937855 ) ) ;
#172 = CARTESIAN_POINT ( 'NONE',  ( 5.556538854067704314, 0.0000000000000000000, -13.67130597806831105 ) ) ;
#173 = CLOSED_SHELL ( 'NONE', ( #247, #15, #229, #162 ) ) ;
#174 = CARTESIAN_POINT ( 'NONE',  ( 13.49402803389370931, 0.0000000000000000000, -0.4015064389155231783 ) ) ;
#175 = CARTESIAN_POINT ( 'NONE',  ( 13.49402803389370931, 17.41011948473438409, -0.4015064389155231228 ) ) ;
#176 = CARTESIAN_POINT ( 'NONE',  ( 5.918792708309906558, 25.00000000000000000, -0.6719693776168567112 ) ) ;
#177 = DATE_AND_TIME ( #134, #147 ) ;
#178 = CARTESIAN_POINT ( 'NONE',  ( 5.947181552660980586, 18.47120519322460908, -0.1831163009919272167 ) ) ;
#179 = CARTESIAN_POINT ( 'NONE',  ( 5.947181552660979698, 25.00000000000000000, -0.1831163009919272167 ) ) ;
#180 =( GEOMETRIC_REPRESENTATION_CONTEXT ( 3 ) GLOBAL_UNCERTAINTY_ASSIGNED_CONTEXT ( ( #133 ) ) GLOBAL_UNIT_ASSIGNED_CONTEXT ( ( #141, #113, #207 ) ) REPRESENTATION_CONTEXT ( 'NONE', 'WORKASPACE' ) );
#181 = EDGE_LOOP ( 'NONE', ( #49, #61, #303, #243 ) ) ;
#182 = DIRECTION ( 'NONE',  ( 0.0000000000000000000, 1.000000000000000000, 0.0000000000000000000 ) ) ;
#183 = EDGE_CURVE ( 'NONE', #111, #135, #77, .T. ) ;
#184 = CC_DESIGN_PERSON_AND_ORGANIZATION_ASSIGNMENT ( #114, #275, ( #130 ) ) ;
#185 = APPROVAL_PERSON_ORGANIZATION ( #78, #231, #155 ) ;
#186 = VERTEX_POINT ( 'NONE', #112 ) ;
#187 = CARTESIAN_POINT ( 'NONE',  ( -7.046050177313516016, 0.0000000000000000000, 13.71562546411195704 ) ) ;
#188 = CARTESIAN_POINT ( 'NONE',  ( 5.948921969141957256, 18.47118182718125468, 0.3065572922921326326 ) ) ;
#189 = CARTESIAN_POINT ( 'NONE',  ( 2.808987313513016115, 18.47117932233843618, 5.866329844597746757 ) ) ;
#190 = ORIENTED_EDGE ( 'NONE', *, *, #60, .T. ) ;
#191 = CARTESIAN_POINT ( 'NONE',  ( -13.27243060367545979, 0.0000000000000000000, 7.849063055144563705 ) ) ;
#192 = CARTESIAN_POINT ( 'NONE',  ( 5.736054685230929095, 18.47109819149035559, -1.608745224304126475 ) ) ;
#193 = CARTESIAN_POINT ( 'NONE',  ( -13.71562546411196060, 0.0000000000000000000, -7.046050177313514240 ) ) ;
#194 = CARTESIAN_POINT ( 'NONE',  ( -5.846116917581939632, 18.47120519322462329, 3.465455066643290394 ) ) ;
#195 = CALENDAR_DATE ( 2019, 28, 10 ) ;
#196 = APPROVAL_ROLE ( '' ) ;
#197 = B_SPLINE_CURVE_WITH_KNOTS ( 'NONE', 3,
 ( #250, #103, #251, #299 ),
 .UNSPECIFIED., .F., .F.,
 ( 4, 4 ),
 ( 0.0000000000000000000, 1.000000000000000000 ),
 .UNSPECIFIED. ) ;
#198 = CARTESIAN_POINT ( 'NONE',  ( 2.442754711529160794, 18.47117932233841486, -6.028033260724211750 ) ) ;
#199 = CARTESIAN_POINT ( 'NONE',  ( 13.01834911596498578, 0.0000000000000000000, -3.636620795850814325 ) ) ;
#200 = DIRECTION ( 'NONE',  ( 0.0000000000000000000, -0.0000000000000000000, 1.000000000000000000 ) ) ;
#201 = EDGE_CURVE ( 'NONE', #42, #111, #242, .T. ) ;
#202 = APPROVAL ( #6, 'UNSPECIFIED' ) ;
#203 = CARTESIAN_POINT ( 'NONE',  ( 13.49682684923051745, 17.41018179418325573, 0.7095211725694968719 ) ) ;
#204 = CARTESIAN_POINT ( 'NONE',  ( 13.50510790540462125, 0.0000000000000000000, -0.02912860810407242457 ) ) ;
#205 = DATE_AND_TIME ( #302, #276 ) ;
#206 = CARTESIAN_POINT ( 'NONE',  ( 5.123282866019525095, 25.00000000000000000, 3.981260628647008026 ) ) ;
#207 =( NAMED_UNIT ( * ) SI_UNIT ( $, .STERADIAN. ) SOLID_ANGLE_UNIT ( ) );
#208 = CARTESIAN_POINT ( 'NONE',  ( 5.918792708309906558, 25.00000000000000000, -0.6719693776168567112 ) ) ;
#209 = APPROVAL_PERSON_ORGANIZATION ( #288, #202, #196 ) ;
#210 = CARTESIAN_POINT ( 'NONE',  ( 11.05656216875276066, 17.41037905595931434, -9.719715103107587240 ) ) ;
#211 = CARTESIAN_POINT ( 'NONE',  ( 5.824162938629987352, 18.47109819149034493, 1.252801106708467005 ) ) ;
#212 = CARTESIAN_POINT ( 'NONE',  ( -5.846116917581939632, 25.00000000000000000, 3.465455066643290394 ) ) ;
#213 = CARTESIAN_POINT ( 'NONE',  ( 5.947181552660979698, 25.00000000000000000, -0.1831163009919272167 ) ) ;
#214 = PERSON_AND_ORGANIZATION ( #74, #152 ) ;
#215 = ORIENTED_EDGE ( 'NONE', *, *, #278, .F. ) ;
#216 = CARTESIAN_POINT ( 'NONE',  ( 5.947181552660980586, 18.47120519322460908, -0.1831163009919272167 ) ) ;
#217 = CARTESIAN_POINT ( 'NONE',  ( -5.846116917581939632, 25.00000000000000000, 3.465455066643290394 ) ) ;
#218 = CARTESIAN_POINT ( 'NONE',  ( -6.048246187740019764, 25.00000000000000000, -3.099222464659435072 ) ) ;
#219 = CARTESIAN_POINT ( 'NONE',  ( 5.947235412789804165, 25.00000000000000000, -0.1831179062681225489 ) ) ;
#220 = PERSON_AND_ORGANIZATION ( #74, #152 ) ;
#221 = PRODUCT_DEFINITION_SHAPE ( 'NONE', 'NONE',  #130 ) ;
#222 = CARTESIAN_POINT ( 'NONE',  ( 11.61489879475552023, 0.0000000000000000000, 9.045139836655886612 ) ) ;
#223 = PERSON_AND_ORGANIZATION ( #74, #152 ) ;
#224 = CARTESIAN_POINT ( 'NONE',  ( 5.947235412789804165, 25.00000000000000000, -0.1831179062681225489 ) ) ;
#225 = CARTESIAN_POINT ( 'NONE',  ( 5.952234784414931035, 25.00000000000000000, -0.01899936270935967050 ) ) ;
#226 = ADVANCED_BREP_SHAPE_REPRESENTATION ( 'Web Model 55139_Default', ( #105, #311 ), #180 ) ;
#227 = CARTESIAN_POINT ( 'NONE',  ( 5.123282866019525095, 18.47110785401531530, 3.981260628647008026 ) ) ;
#228 = DIRECTION ( 'NONE',  ( 0.0000000000000000000, 0.0000000000000000000, 1.000000000000000000 ) ) ;
#229 = ADVANCED_FACE ( 'NONE', ( #163 ), #128, .F. ) ;
#230 = ORIENTED_EDGE ( 'NONE', *, *, #127, .F. ) ;
#231 = APPROVAL ( #75, 'UNSPECIFIED' ) ;
#232 = CARTESIAN_POINT ( 'NONE',  ( 5.845684631275409160, 25.00000000000000000, -1.147092139378367293 ) ) ;
#233 = CARTESIAN_POINT ( 'NONE',  ( 13.39646324160552027, 0.0000000000000000000, 1.795590495627135352 ) ) ;
#234 = CARTESIAN_POINT ( 'NONE',  ( 5.905183140973574218, 25.00000000000000000, 0.7852778209746015259 ) ) ;
#235 = CARTESIAN_POINT ( 'NONE',  ( 13.01834911596498578, 0.0000000000000000000, -3.636620795850814325 ) ) ;
#236 = APPROVAL ( #99, 'UNSPECIFIED' ) ;
#237 = CARTESIAN_POINT ( 'NONE',  ( 2.808987313513016115, 25.00000000000000000, 5.866329844597747645 ) ) ;
#238 = CARTESIAN_POINT ( 'NONE',  ( 0.0000000000000000000, 0.0000000000000000000, 0.0000000000000000000 ) ) ;
#239 = CARTESIAN_POINT ( 'NONE',  ( -13.27243060367545979, 17.41011948473438409, 7.849063055144563705 ) ) ;
#240 = APPROVAL_ROLE ( '' ) ;
#241 = CARTESIAN_POINT ( 'NONE',  ( 13.48294816238279559, 17.41011948473438409, -0.7738842697269737725 ) ) ;
#242 = CIRCLE ( 'NONE', #92, 13.50000000000000000 ) ;
#243 = ORIENTED_EDGE ( 'NONE', *, *, #60, .F. ) ;
#244 = CARTESIAN_POINT ( 'NONE',  ( 13.43076450438025304, 0.0000000000000000000, -1.510734960313567132 ) ) ;
#245 = CARTESIAN_POINT ( 'NONE',  ( 5.845684631275409160, 25.00000000000000000, -1.147092139378367293 ) ) ;
#246 = CC_DESIGN_PERSON_AND_ORGANIZATION_ASSIGNMENT ( #223, #98, ( #159 ) ) ;
#247 = ADVANCED_FACE ( 'NONE', ( #7 ), #76, .T. ) ;
#248 = PERSON_AND_ORGANIZATION ( #74, #152 ) ;
#249 = ORIENTED_EDGE ( 'NONE', *, *, #278, .T. ) ;
#250 = CARTESIAN_POINT ( 'NONE',  ( -13.49411799025122249, 0.0000000000000000000, 0.4015089982467805463 ) ) ;
#251 = CARTESIAN_POINT ( 'NONE',  ( -5.947181552660980586, 18.47120519322462329, 0.1831163009919276607 ) ) ;
#252 = CARTESIAN_POINT ( 'NONE',  ( 13.49402803389370931, 17.41011948473438409, -0.4015064389155231228 ) ) ;
#253 = FACE_OUTER_BOUND ( 'NONE', #181, .T. ) ;
#254 = ORIENTED_EDGE ( 'NONE', *, *, #183, .F. ) ;
#255 = CARTESIAN_POINT ( 'NONE',  ( 13.49682684923051923, 0.0000000000000000000, 0.7095211725694968719 ) ) ;
#256 = CARTESIAN_POINT ( 'NONE',  ( 0.0000000000000000000, 0.0000000000000000000, 0.0000000000000000000 ) ) ;
#257 = DIRECTION ( 'NONE',  ( 0.0000000000000000000, 0.0000000000000000000, 1.000000000000000000 ) ) ;
#258 = DIRECTION ( 'NONE',  ( 0.0000000000000000000, 0.0000000000000000000, 1.000000000000000000 ) ) ;
#259 = DATE_AND_TIME ( #195, #83 ) ;
#260 = CARTESIAN_POINT ( 'NONE',  ( 5.736054685230929984, 25.00000000000000000, -1.608745224304126475 ) ) ;
#261 = CARTESIAN_POINT ( 'NONE',  ( 4.868640529677194628, 25.00000000000000000, -4.288916286341873274 ) ) ;
#262 = CARTESIAN_POINT ( 'NONE',  ( 2.442754711529160794, 18.47117932233841486, -6.028033260724211750 ) ) ;
#263 = CIRCLE ( 'NONE', #107, 5.950000000000000178 ) ;
#264 = CARTESIAN_POINT ( 'NONE',  ( -7.849063055144563705, 17.41003324844703570, -13.27243060367545624 ) ) ;
#265 = CARTESIAN_POINT ( 'NONE',  ( 11.61489879475552023, 0.0000000000000000000, 9.045139836655886612 ) ) ;
#266 = CARTESIAN_POINT ( 'NONE',  ( 11.05656216875276066, 17.41037905595931434, -9.719715103107587240 ) ) ;
#267 = CC_DESIGN_APPROVAL ( #236, ( #159 ) ) ;
#268 = CARTESIAN_POINT ( 'NONE',  ( 5.947181552660980586, 18.47120519322460908, -0.1831163009919272167 ) ) ;
#269 = CARTESIAN_POINT ( 'NONE',  ( 13.43076450438025304, 17.41018179418324863, -1.510734960313567132 ) ) ;
#270 = PERSON_AND_ORGANIZATION_ROLE ( 'creator' ) ;
#271 = CARTESIAN_POINT ( 'NONE',  ( 5.952234784414931035, 25.00000000000000000, -0.01899936270935967050 ) ) ;
#272 = CARTESIAN_POINT ( 'NONE',  ( 13.50510790540462125, 17.41011948473438409, -0.02912860810407242457 ) ) ;
#273 = PRODUCT_RELATED_PRODUCT_CATEGORY ( 'detail', '', ( #29 ) ) ;
#274 = PLANE ( 'NONE',  #51 ) ;
#275 = PERSON_AND_ORGANIZATION_ROLE ( 'creator' ) ;
#276 = LOCAL_TIME ( 8, 53, 36.00000000000000000, #307 ) ;
#277 = CARTESIAN_POINT ( 'NONE',  ( 2.808987313513016115, 18.47117932233843618, 5.866329844597746757 ) ) ;
#278 = EDGE_CURVE ( 'NONE', #135, #186, #263, .T. ) ;
#279 = CARTESIAN_POINT ( 'NONE',  ( 13.21153798484062669, 17.41040482269237444, 2.856166765627355275 ) ) ;
#280 = DATE_AND_TIME ( #39, #101 ) ;
#281 = CARTESIAN_POINT ( 'NONE',  ( 2.808987313513016115, 25.00000000000000000, 5.866329844597747645 ) ) ;
#282 = DIRECTION ( 'NONE',  ( 0.0000000000000000000, 0.0000000000000000000, 1.000000000000000000 ) ) ;
#283 = CARTESIAN_POINT ( 'NONE',  ( 13.49402803389370931, 0.0000000000000000000, -0.4015064389155231783 ) ) ;
#284 = LOCAL_TIME ( 8, 53, 36.00000000000000000, #56 ) ;
#285 = CARTESIAN_POINT ( 'NONE',  ( 13.49402803389370931, 17.41011948473438409, -0.4015064389155231228 ) ) ;
#286 = APPLICATION_CONTEXT ( 'configuration controlled 3d designs of mechanical parts and assemblies' ) ;
#287 = CARTESIAN_POINT ( 'NONE',  ( -3.099222464659434628, 18.47123753183237582, 6.048246187740020652 ) ) ;
#288 = PERSON_AND_ORGANIZATION ( #74, #152 ) ;
#289 = CARTESIAN_POINT ( 'NONE',  ( 13.49682684923051923, 0.0000000000000000000, 0.7095211725694968719 ) ) ;
#290 = CARTESIAN_POINT ( 'NONE',  ( 13.50510790540462125, 0.0000000000000000000, -0.02912860810407242457 ) ) ;
#291 = CARTESIAN_POINT ( 'NONE',  ( 5.556538854067704314, 17.41018847376426493, -13.67130597806831105 ) ) ;
#292 = CC_DESIGN_PERSON_AND_ORGANIZATION_ASSIGNMENT ( #248, #65, ( #29 ) ) ;
#293 = CARTESIAN_POINT ( 'NONE',  ( 13.48294816238279559, 17.41011948473438409, -0.7738842697269737725 ) ) ;
#294 = CARTESIAN_POINT ( 'NONE',  ( 2.442754711529160794, 25.00000000000000000, -6.028033260724211750 ) ) ;
#295 = CARTESIAN_POINT ( 'NONE',  ( -7.849063055144563705, 17.41003324844703570, -13.27243060367545624 ) ) ;
#296 = CARTESIAN_POINT ( 'NONE',  ( 13.48294816238279559, 0.0000000000000000000, -0.7738842697269738835 ) ) ;
#297 = CARTESIAN_POINT ( 'NONE',  ( 4.868640529677194628, 18.47110785401530464, -4.288916286341873274 ) ) ;
#298 = SECURITY_CLASSIFICATION_LEVEL ( 'unclassified' ) ;
#299 = CARTESIAN_POINT ( 'NONE',  ( -5.947235414423220234, 25.00000000000000000, 0.1831178532187257568 ) ) ;
#300 = CARTESIAN_POINT ( 'NONE',  ( 6.359551731898752891, 0.0000000000000000000, 13.31675008971910756 ) ) ;
#301 = APPROVAL_DATE_TIME ( #177, #202 ) ;
#302 = CALENDAR_DATE ( 2019, 28, 10 ) ;
#303 = ORIENTED_EDGE ( 'NONE', *, *, #183, .T. ) ;
#304 = CARTESIAN_POINT ( 'NONE',  ( 5.948921969141957256, 25.00000000000000000, 0.3065572922921326326 ) ) ;
#305 = CARTESIAN_POINT ( 'NONE',  ( 0.0000000000000000000, 0.0000000000000000000, 0.0000000000000000000 ) ) ;
#306 = CARTESIAN_POINT ( 'NONE',  ( 5.947181552660979698, 25.00000000000000000, -0.1831163009919272167 ) ) ;
#307 = COORDINATED_UNIVERSAL_TIME_OFFSET ( 5, 0, .BEHIND. ) ;
#308 = FACE_OUTER_BOUND ( 'NONE', #126, .T. ) ;
#309 = CARTESIAN_POINT ( 'NONE',  ( 5.123282866019525095, 25.00000000000000000, 3.981260628647008026 ) ) ;
#310 = CARTESIAN_POINT ( 'NONE',  ( 5.123282866019525095, 18.47110785401531530, 3.981260628647008026 ) ) ;
#311 = AXIS2_PLACEMENT_3D ( 'NONE', #256, #258, #43 ) ;
#312 = CARTESIAN_POINT ( 'NONE',  ( 6.359551731898752891, 0.0000000000000000000, 13.31675008971910756 ) ) ;
#313 = PERSON_AND_ORGANIZATION ( #74, #152 ) ;
ENDSEC;
END-ISO-10303-21;
