ISO-10303-21;
HEADER;
FILE_DESCRIPTION (( 'STEP AP203' ),
    '1' );
FILE_NAME ('step_35956.step',
    '2017-05-22T20:26:47',
    ( '' ),
    ( '' ),
    'SwSTEP 2.0',
    'SolidWorks 2016',
    '' );
FILE_SCHEMA (( 'CONFIG_CONTROL_DESIGN' ));
ENDSEC;

DATA;
#1 = CARTESIAN_POINT ( 'NONE',  ( -24.99999999999999300, -37.50000000000001400, 1.000000000000000000 ) ) ;
#2 = CARTESIAN_POINT ( 'NONE',  ( 24.99999999999999600, 37.49999999999999300, 0.0000000000000000000 ) ) ;
#3 = CC_DESIGN_SECURITY_CLASSIFICATION ( #21, ( #47 ) ) ;
#4 = CC_DESIGN_APPROVAL ( #11, ( #21 ) ) ;
#5 = CALENDAR_DATE ( 2017, 22, 5 ) ;
#6 = CARTESIAN_POINT ( 'NONE',  ( -25.00000000000000000, 37.49999999999999300, 0.0000000000000000000 ) ) ;
#7 = LOCAL_TIME ( 13, 26, 47.00000000000000000, #10 ) ;
#8 = CARTESIAN_POINT ( 'NONE',  ( -25.00000000000000000, 37.49999999999999300, 1.000000000000000000 ) ) ;
#9 = CARTESIAN_POINT ( 'NONE',  ( -25.00000000000000000, 37.49999999999999300, 1.000000000000000000 ) ) ;
#10 = COORDINATED_UNIVERSAL_TIME_OFFSET ( 7, 0, .BEHIND. ) ;
#11 = APPROVAL ( #146, 'UNSPECIFIED' ) ;
#12 = PERSON ( 'UNSPECIFIED', 'UNSPECIFIED', 'UNSPECIFIED', ('UNSPECIFIED'), ('UNSPECIFIED'), ('UNSPECIFIED') ) ;
#13 = DIRECTION ( 'NONE',  ( 1.000000000000000000, 0.0000000000000000000, 0.0000000000000000000 ) ) ;
#14 = MANIFOLD_SOLID_BREP ( 'Boss-Extrude1', #201 ) ;
#15 = CC_DESIGN_DATE_AND_TIME_ASSIGNMENT ( #18, #149, ( #21 ) ) ;
#16 = APPROVAL_PERSON_ORGANIZATION ( #17, #11, #140 ) ;
#17 = PERSON_AND_ORGANIZATION ( #12, #125 ) ;
#18 = DATE_AND_TIME ( #20, #23 ) ;
#19 = CC_DESIGN_PERSON_AND_ORGANIZATION_ASSIGNMENT ( #25, #150, ( #21 ) ) ;
#20 = CALENDAR_DATE ( 2017, 22, 5 ) ;
#21 = SECURITY_CLASSIFICATION ( '', '', #151 ) ;
#22 = CC_DESIGN_PERSON_AND_ORGANIZATION_ASSIGNMENT ( #29, #88, ( #47 ) ) ;
#23 = LOCAL_TIME ( 13, 26, 47.00000000000000000, #24 ) ;
#24 = COORDINATED_UNIVERSAL_TIME_OFFSET ( 7, 0, .BEHIND. ) ;
#25 = PERSON_AND_ORGANIZATION ( #12, #125 ) ;
#26 = CC_DESIGN_PERSON_AND_ORGANIZATION_ASSIGNMENT ( #30, #234, ( #47 ) ) ;
#27 = CARTESIAN_POINT ( 'NONE',  ( -24.99999999999999300, -37.50000000000001400, 1.000000000000000000 ) ) ;
#28 = DIRECTION ( 'NONE',  ( 1.000000000000000000, 0.0000000000000000000, 0.0000000000000000000 ) ) ;
#29 = PERSON_AND_ORGANIZATION ( #12, #125 ) ;
#30 = PERSON_AND_ORGANIZATION ( #12, #125 ) ;
#31 = APPROVAL_DATE_TIME ( #33, #45 ) ;
#32 = CARTESIAN_POINT ( 'NONE',  ( -25.00000000000000000, 37.49999999999999300, 1.000000000000000000 ) ) ;
#33 = DATE_AND_TIME ( #34, #37 ) ;
#34 = CALENDAR_DATE ( 2017, 22, 5 ) ;
#35 = CC_DESIGN_APPROVAL ( #45, ( #47 ) ) ;
#36 = DIRECTION ( 'NONE',  ( -9.251858538542970300E-017, 1.000000000000000000, -0.0000000000000000000 ) ) ;
#37 = LOCAL_TIME ( 13, 26, 47.00000000000000000, #38 ) ;
#38 = COORDINATED_UNIVERSAL_TIME_OFFSET ( 7, 0, .BEHIND. ) ;
#39 = APPROVAL_PERSON_ORGANIZATION ( #40, #45, #71 ) ;
#40 = PERSON_AND_ORGANIZATION ( #12, #125 ) ;
#41 = PLANE ( 'NONE',  #105 ) ;
#42 = ADVANCED_FACE ( 'NONE', ( #207 ), #44, .F. ) ;
#43 = DATE_AND_TIME ( #63, #49 ) ;
#44 = PLANE ( 'NONE',  #233 ) ;
#45 = APPROVAL ( #80, 'UNSPECIFIED' ) ;
#46 = VECTOR ( 'NONE', #189, 1000.000000000000000 ) ;
#47 = PRODUCT_DEFINITION_FORMATION_WITH_SPECIFIED_SOURCE ( 'ANY', '', #72, .NOT_KNOWN. ) ;
#48 = ORIENTED_EDGE ( 'NONE', *, *, #126, .T. ) ;
#49 = LOCAL_TIME ( 13, 26, 47.00000000000000000, #191 ) ;
#50 = APPROVAL_DATE_TIME ( #152, #58 ) ;
#51 = LINE ( 'NONE', #180, #199 ) ;
#52 = CC_DESIGN_DATE_AND_TIME_ASSIGNMENT ( #43, #135, ( #64 ) ) ;
#53 = CC_DESIGN_PERSON_AND_ORGANIZATION_ASSIGNMENT ( #55, #94, ( #64 ) ) ;
#54 = ORIENTED_EDGE ( 'NONE', *, *, #153, .F. ) ;
#55 = PERSON_AND_ORGANIZATION ( #12, #125 ) ;
#56 = ORIENTED_EDGE ( 'NONE', *, *, #237, .T. ) ;
#57 = CC_DESIGN_APPROVAL ( #58, ( #64 ) ) ;
#58 = APPROVAL ( #204, 'UNSPECIFIED' ) ;
#59 = DIRECTION ( 'NONE',  ( 0.0000000000000000000, 1.000000000000000000, 0.0000000000000000000 ) ) ;
#60 = DIRECTION ( 'NONE',  ( 1.000000000000000000, 0.0000000000000000000, 0.0000000000000000000 ) ) ;
#61 = DIRECTION ( 'NONE',  ( 1.000000000000000000, 0.0000000000000000000, 0.0000000000000000000 ) ) ;
#62 = CARTESIAN_POINT ( 'NONE',  ( 24.99999999999999600, 37.49999999999999300, 1.000000000000000000 ) ) ;
#63 = CALENDAR_DATE ( 2017, 22, 5 ) ;
#64 = PRODUCT_DEFINITION ( 'UNKNOWN', '', #47, #172 ) ;
#65 = DIRECTION ( 'NONE',  ( -0.0000000000000000000, -0.0000000000000000000, -1.000000000000000000 ) ) ;
#66 = APPLICATION_PROTOCOL_DEFINITION ( 'international standard', 'config_control_design', 1994, #186 ) ;
#67 = CC_DESIGN_PERSON_AND_ORGANIZATION_ASSIGNMENT ( #143, #214, ( #72 ) ) ;
#68 = CARTESIAN_POINT ( 'NONE',  ( -25.00000000000000000, 37.49999999999999300, 0.0000000000000000000 ) ) ;
#69 = AXIS2_PLACEMENT_3D ( 'NONE', #120, #187, #13 ) ;
#70 = DIRECTION ( 'NONE',  ( 0.0000000000000000000, -0.0000000000000000000, 1.000000000000000000 ) ) ;
#71 = APPROVAL_ROLE ( '' ) ;
#72 = PRODUCT ( 'step_35956', 'step_35956', '', ( #217 ) ) ;
#73 = PLANE ( 'NONE',  #182 ) ;
#74 = FACE_OUTER_BOUND ( 'NONE', #144, .T. ) ;
#75 = CARTESIAN_POINT ( 'NONE',  ( -24.99999999999999300, -37.50000000000001400, 0.0000000000000000000 ) ) ;
#76 = CARTESIAN_POINT ( 'NONE',  ( 0.0000000000000000000, 0.0000000000000000000, 0.0000000000000000000 ) ) ;
#77 = ADVANCED_FACE ( 'NONE', ( #102 ), #86, .F. ) ;
#78 = DIRECTION ( 'NONE',  ( 1.000000000000000000, 0.0000000000000000000, 0.0000000000000000000 ) ) ;
#79 = ORIENTED_EDGE ( 'NONE', *, *, #236, .F. ) ;
#80 = APPROVAL_STATUS ( 'not_yet_approved' ) ;
#81 = DIRECTION ( 'NONE',  ( -9.251858538542970300E-017, 1.000000000000000000, 0.0000000000000000000 ) ) ;
#82 = DIRECTION ( 'NONE',  ( 0.0000000000000000000, -0.0000000000000000000, -1.000000000000000000 ) ) ;
#83 = ORIENTED_EDGE ( 'NONE', *, *, #91, .F. ) ;
#84 = CARTESIAN_POINT ( 'NONE',  ( 24.99999999999999600, 37.49999999999999300, 1.000000000000000000 ) ) ;
#85 = EDGE_LOOP ( 'NONE', ( #213, #209, #106, #221 ) ) ;
#86 = PLANE ( 'NONE',  #224 ) ;
#87 = CARTESIAN_POINT ( 'NONE',  ( -24.99999999999999300, -37.50000000000001400, 1.000000000000000000 ) ) ;
#88 = PERSON_AND_ORGANIZATION_ROLE ( 'design_supplier' ) ;
#89 = DIRECTION ( 'NONE',  ( -0.0000000000000000000, -0.0000000000000000000, -1.000000000000000000 ) ) ;
#90 = DATE_AND_TIME ( #5, #7 ) ;
#91 = EDGE_CURVE ( 'NONE', #235, #162, #51, .T. ) ;
#92 = CARTESIAN_POINT ( 'NONE',  ( 0.0000000000000000000, 0.0000000000000000000, 1.000000000000000000 ) ) ;
#93 = CARTESIAN_POINT ( 'NONE',  ( -25.00000000000000000, 37.49999999999999300, 1.000000000000000000 ) ) ;
#94 = PERSON_AND_ORGANIZATION_ROLE ( 'creator' ) ;
#95 = VECTOR ( 'NONE', #114, 1000.000000000000000 ) ;
#96 = VECTOR ( 'NONE', #65, 1000.000000000000000 ) ;
#97 =( LENGTH_UNIT ( ) NAMED_UNIT ( * ) SI_UNIT ( .MILLI., .METRE. ) );
#98 = DIRECTION ( 'NONE',  ( 9.251858538542970300E-017, -1.000000000000000000, 0.0000000000000000000 ) ) ;
#99 = PRODUCT_DEFINITION_SHAPE ( 'NONE', 'NONE',  #64 ) ;
#100 = DIRECTION ( 'NONE',  ( -9.251858538542970300E-017, 1.000000000000000000, -0.0000000000000000000 ) ) ;
#101 = PRODUCT_RELATED_PRODUCT_CATEGORY ( 'detail', '', ( #72 ) ) ;
#102 = FACE_OUTER_BOUND ( 'NONE', #85, .T. ) ;
#103 = VECTOR ( 'NONE', #89, 1000.000000000000000 ) ;
#104 = LINE ( 'NONE', #2, #142 ) ;
#105 = AXIS2_PLACEMENT_3D ( 'NONE', #76, #223, #61 ) ;
#106 = ORIENTED_EDGE ( 'NONE', *, *, #218, .F. ) ;
#107 = CARTESIAN_POINT ( 'NONE',  ( -25.00000000000000000, 37.49999999999999300, 1.000000000000000000 ) ) ;
#108 =( GEOMETRIC_REPRESENTATION_CONTEXT ( 3 ) GLOBAL_UNCERTAINTY_ASSIGNED_CONTEXT ( ( #176 ) ) GLOBAL_UNIT_ASSIGNED_CONTEXT ( ( #97, #141, #195 ) ) REPRESENTATION_CONTEXT ( 'NONE', 'WORKASPACE' ) );
#109 = CARTESIAN_POINT ( 'NONE',  ( -25.00000000000000000, 37.49999999999999300, 0.0000000000000000000 ) ) ;
#110 = VECTOR ( 'NONE', #161, 1000.000000000000000 ) ;
#111 = LINE ( 'NONE', #68, #46 ) ;
#112 = LINE ( 'NONE', #107, #95 ) ;
#113 = VECTOR ( 'NONE', #78, 1000.000000000000000 ) ;
#114 = DIRECTION ( 'NONE',  ( 9.251858538542970300E-017, -1.000000000000000000, 0.0000000000000000000 ) ) ;
#115 = LINE ( 'NONE', #6, #122 ) ;
#116 = EDGE_CURVE ( 'NONE', #208, #128, #198, .T. ) ;
#117 = PLANE ( 'NONE',  #170 ) ;
#118 = AXIS2_PLACEMENT_3D ( 'NONE', #9, #145, #81 ) ;
#119 = APPROVAL_ROLE ( '' ) ;
#120 = CARTESIAN_POINT ( 'NONE',  ( 0.0000000000000000000, 0.0000000000000000000, 0.0000000000000000000 ) ) ;
#121 = ADVANCED_FACE ( 'NONE', ( #74 ), #178, .F. ) ;
#122 = VECTOR ( 'NONE', #148, 1000.000000000000000 ) ;
#123 = VECTOR ( 'NONE', #184, 1000.000000000000000 ) ;
#124 = LINE ( 'NONE', #154, #103 ) ;
#125 = ORGANIZATION ( 'UNSPECIFIED', 'UNSPECIFIED', '' ) ;
#126 = EDGE_CURVE ( 'NONE', #219, #235, #111, .T. ) ;
#127 = LINE ( 'NONE', #84, #96 ) ;
#128 = VERTEX_POINT ( 'NONE', #62 ) ;
#129 = FACE_OUTER_BOUND ( 'NONE', #216, .T. ) ;
#130 = LINE ( 'NONE', #230, #136 ) ;
#131 = DIRECTION ( 'NONE',  ( 0.0000000000000000000, -1.000000000000000000, 0.0000000000000000000 ) ) ;
#132 = CARTESIAN_POINT ( 'NONE',  ( 24.99999999999999600, 37.49999999999999300, 1.000000000000000000 ) ) ;
#133 = CARTESIAN_POINT ( 'NONE',  ( 25.00000000000000400, -37.50000000000001400, 0.0000000000000000000 ) ) ;
#134 = FACE_OUTER_BOUND ( 'NONE', #156, .T. ) ;
#135 = DATE_TIME_ROLE ( 'creation_date' ) ;
#136 = VECTOR ( 'NONE', #163, 1000.000000000000000 ) ;
#137 = CARTESIAN_POINT ( 'NONE',  ( 24.99999999999999600, 37.49999999999999300, 1.000000000000000000 ) ) ;
#138 = LINE ( 'NONE', #27, #113 ) ;
#139 = CALENDAR_DATE ( 2017, 22, 5 ) ;
#140 = APPROVAL_ROLE ( '' ) ;
#141 =( NAMED_UNIT ( * ) PLANE_ANGLE_UNIT ( ) SI_UNIT ( $, .RADIAN. ) );
#142 = VECTOR ( 'NONE', #36, 1000.000000000000000 ) ;
#143 = PERSON_AND_ORGANIZATION ( #12, #125 ) ;
#144 = EDGE_LOOP ( 'NONE', ( #48, #193, #210, #215 ) ) ;
#145 = DIRECTION ( 'NONE',  ( 1.000000000000000000, 9.251858538542970300E-017, -0.0000000000000000000 ) ) ;
#146 = APPROVAL_STATUS ( 'not_yet_approved' ) ;
#147 = CARTESIAN_POINT ( 'NONE',  ( -24.99999999999999300, -37.50000000000001400, 1.000000000000000000 ) ) ;
#148 = DIRECTION ( 'NONE',  ( -1.000000000000000000, -0.0000000000000000000, -0.0000000000000000000 ) ) ;
#149 = DATE_TIME_ROLE ( 'classification_date' ) ;
#150 = PERSON_AND_ORGANIZATION_ROLE ( 'classification_officer' ) ;
#151 = SECURITY_CLASSIFICATION_LEVEL ( 'unclassified' ) ;
#152 = DATE_AND_TIME ( #139, #175 ) ;
#153 = EDGE_CURVE ( 'NONE', #220, #219, #130, .T. ) ;
#154 = CARTESIAN_POINT ( 'NONE',  ( 25.00000000000000400, -37.50000000000001400, 1.000000000000000000 ) ) ;
#155 = DIRECTION ( 'NONE',  ( -1.000000000000000000, -9.251858538542970300E-017, 0.0000000000000000000 ) ) ;
#156 = EDGE_LOOP ( 'NONE', ( #222, #160, #225, #56 ) ) ;
#157 = ORIENTED_EDGE ( 'NONE', *, *, #126, .F. ) ;
#158 = ORIENTED_EDGE ( 'NONE', *, *, #116, .T. ) ;
#159 = ORIENTED_EDGE ( 'NONE', *, *, #173, .T. ) ;
#160 = ORIENTED_EDGE ( 'NONE', *, *, #229, .F. ) ;
#161 = DIRECTION ( 'NONE',  ( -0.0000000000000000000, -0.0000000000000000000, -1.000000000000000000 ) ) ;
#162 = VERTEX_POINT ( 'NONE', #133 ) ;
#163 = DIRECTION ( 'NONE',  ( -0.0000000000000000000, -0.0000000000000000000, -1.000000000000000000 ) ) ;
#164 = VERTEX_POINT ( 'NONE', #188 ) ;
#165 = APPROVAL_PERSON_ORGANIZATION ( #183, #58, #119 ) ;
#166 = CARTESIAN_POINT ( 'NONE',  ( 25.00000000000000400, -37.50000000000001400, 1.000000000000000000 ) ) ;
#167 = ORIENTED_EDGE ( 'NONE', *, *, #203, .F. ) ;
#168 = ORIENTED_EDGE ( 'NONE', *, *, #218, .T. ) ;
#169 = ORIENTED_EDGE ( 'NONE', *, *, #229, .T. ) ;
#170 = AXIS2_PLACEMENT_3D ( 'NONE', #92, #197, #28 ) ;
#171 = COORDINATED_UNIVERSAL_TIME_OFFSET ( 7, 0, .BEHIND. ) ;
#172 = DESIGN_CONTEXT ( 'detailed design', #211, 'design' ) ;
#173 = EDGE_CURVE ( 'NONE', #220, #200, #112, .T. ) ;
#174 = EDGE_CURVE ( 'NONE', #200, #235, #228, .T. ) ;
#175 = LOCAL_TIME ( 13, 26, 47.00000000000000000, #171 ) ;
#176 = UNCERTAINTY_MEASURE_WITH_UNIT (LENGTH_MEASURE( 1.000000000000000100E-005 ), #97, 'distance_accuracy_value', 'NONE');
#177 = FACE_OUTER_BOUND ( 'NONE', #212, .T. ) ;
#178 = PLANE ( 'NONE',  #118 ) ;
#179 = VECTOR ( 'NONE', #100, 1000.000000000000000 ) ;
#180 = CARTESIAN_POINT ( 'NONE',  ( -24.99999999999999300, -37.50000000000001400, 0.0000000000000000000 ) ) ;
#181 = ADVANCED_FACE ( 'NONE', ( #129 ), #117, .T. ) ;
#182 = AXIS2_PLACEMENT_3D ( 'NONE', #132, #155, #98 ) ;
#183 = PERSON_AND_ORGANIZATION ( #12, #125 ) ;
#184 = DIRECTION ( 'NONE',  ( -1.000000000000000000, -0.0000000000000000000, -0.0000000000000000000 ) ) ;
#185 = ADVANCED_FACE ( 'NONE', ( #134 ), #73, .F. ) ;
#186 = APPLICATION_CONTEXT ( 'configuration controlled 3d designs of mechanical parts and assemblies' ) ;
#187 = DIRECTION ( 'NONE',  ( 0.0000000000000000000, 0.0000000000000000000, 1.000000000000000000 ) ) ;
#188 = CARTESIAN_POINT ( 'NONE',  ( 24.99999999999999600, 37.49999999999999300, 0.0000000000000000000 ) ) ;
#189 = DIRECTION ( 'NONE',  ( 9.251858538542970300E-017, -1.000000000000000000, 0.0000000000000000000 ) ) ;
#190 = ADVANCED_FACE ( 'NONE', ( #177 ), #41, .F. ) ;
#191 = COORDINATED_UNIVERSAL_TIME_OFFSET ( 7, 0, .BEHIND. ) ;
#192 = APPROVAL_DATE_TIME ( #90, #11 ) ;
#193 = ORIENTED_EDGE ( 'NONE', *, *, #174, .F. ) ;
#194 = LINE ( 'NONE', #8, #123 ) ;
#195 =( NAMED_UNIT ( * ) SI_UNIT ( $, .STERADIAN. ) SOLID_ANGLE_UNIT ( ) );
#196 = SHAPE_DEFINITION_REPRESENTATION ( #99, #227 ) ;
#197 = DIRECTION ( 'NONE',  ( -0.0000000000000000000, 0.0000000000000000000, 1.000000000000000000 ) ) ;
#198 = LINE ( 'NONE', #137, #179 ) ;
#199 = VECTOR ( 'NONE', #60, 1000.000000000000000 ) ;
#200 = VERTEX_POINT ( 'NONE', #147 ) ;
#201 = CLOSED_SHELL ( 'NONE', ( #121, #77, #185, #42, #181, #190 ) ) ;
#202 = ORIENTED_EDGE ( 'NONE', *, *, #203, .T. ) ;
#203 = EDGE_CURVE ( 'NONE', #164, #219, #115, .T. ) ;
#204 = APPROVAL_STATUS ( 'not_yet_approved' ) ;
#205 = EDGE_LOOP ( 'NONE', ( #202, #54, #79, #169 ) ) ;
#206 = APPLICATION_PROTOCOL_DEFINITION ( 'international standard', 'config_control_design', 1994, #211 ) ;
#207 = FACE_OUTER_BOUND ( 'NONE', #205, .T. ) ;
#208 = VERTEX_POINT ( 'NONE', #166 ) ;
#209 = ORIENTED_EDGE ( 'NONE', *, *, #237, .F. ) ;
#210 = ORIENTED_EDGE ( 'NONE', *, *, #173, .F. ) ;
#211 = APPLICATION_CONTEXT ( 'configuration controlled 3d designs of mechanical parts and assemblies' ) ;
#212 = EDGE_LOOP ( 'NONE', ( #157, #167, #231, #83 ) ) ;
#213 = ORIENTED_EDGE ( 'NONE', *, *, #91, .T. ) ;
#214 = PERSON_AND_ORGANIZATION_ROLE ( 'design_owner' ) ;
#215 = ORIENTED_EDGE ( 'NONE', *, *, #153, .T. ) ;
#216 = EDGE_LOOP ( 'NONE', ( #159, #168, #158, #226 ) ) ;
#217 = MECHANICAL_CONTEXT ( 'NONE', #186, 'mechanical' ) ;
#218 = EDGE_CURVE ( 'NONE', #200, #208, #138, .T. ) ;
#219 = VERTEX_POINT ( 'NONE', #109 ) ;
#220 = VERTEX_POINT ( 'NONE', #93 ) ;
#221 = ORIENTED_EDGE ( 'NONE', *, *, #174, .T. ) ;
#222 = ORIENTED_EDGE ( 'NONE', *, *, #232, .T. ) ;
#223 = DIRECTION ( 'NONE',  ( -0.0000000000000000000, 0.0000000000000000000, 1.000000000000000000 ) ) ;
#224 = AXIS2_PLACEMENT_3D ( 'NONE', #87, #59, #70 ) ;
#225 = ORIENTED_EDGE ( 'NONE', *, *, #116, .F. ) ;
#226 = ORIENTED_EDGE ( 'NONE', *, *, #236, .T. ) ;
#227 = ADVANCED_BREP_SHAPE_REPRESENTATION ( 'step_35956', ( #14, #69 ), #108 ) ;
#228 = LINE ( 'NONE', #1, #110 ) ;
#229 = EDGE_CURVE ( 'NONE', #128, #164, #127, .T. ) ;
#230 = CARTESIAN_POINT ( 'NONE',  ( -25.00000000000000000, 37.49999999999999300, 1.000000000000000000 ) ) ;
#231 = ORIENTED_EDGE ( 'NONE', *, *, #232, .F. ) ;
#232 = EDGE_CURVE ( 'NONE', #162, #164, #104, .T. ) ;
#233 = AXIS2_PLACEMENT_3D ( 'NONE', #32, #131, #82 ) ;
#234 = PERSON_AND_ORGANIZATION_ROLE ( 'creator' ) ;
#235 = VERTEX_POINT ( 'NONE', #75 ) ;
#236 = EDGE_CURVE ( 'NONE', #128, #220, #194, .T. ) ;
#237 = EDGE_CURVE ( 'NONE', #208, #162, #124, .T. ) ;
ENDSEC;
END-ISO-10303-21;
