ISO-10303-21;
HEADER;
FILE_DESCRIPTION (( 'STEP AP203' ),
    '1' );
FILE_NAME ('Web Model 17283_17283.step',
    '2021-04-19T19:06:35',
    ( '' ),
    ( '' ),
    'SwSTEP 2.0',
    'SolidWorks 2018',
    '' );
FILE_SCHEMA (( 'CONFIG_CONTROL_DESIGN' ));
ENDSEC;

DATA;
#1 = EDGE_CURVE ( 'NONE', #30, #26, #45, .T. ) ;
#2 = CARTESIAN_POINT ( 'NONE',  ( 0.000000000000000000, 0.000000000000000000, 0.000000000000000000 ) ) ;
#3 = PERSON_AND_ORGANIZATION ( #64, #54 ) ;
#4 = PERSON_AND_ORGANIZATION_ROLE ( 'design_owner' ) ;
#5 = APPROVAL_STATUS ( 'not_yet_approved' ) ;
#6 = APPROVAL_ROLE ( '' ) ;
#7 = COORDINATED_UNIVERSAL_TIME_OFFSET ( 5, 0, .BEHIND. ) ;
#8 = FACE_OUTER_BOUND ( 'NONE', #29, .T. ) ;
#9 = CC_DESIGN_PERSON_AND_ORGANIZATION_ASSIGNMENT ( #3, #87, ( #145 ) ) ;
#10 = EDGE_LOOP ( 'NONE', ( #118, #57, #168, #80 ) ) ;
#11 = CARTESIAN_POINT ( 'NONE',  ( 0.000000000000000000, 0.000000000000000000, 0.000000000000000000 ) ) ;
#12 = COORDINATED_UNIVERSAL_TIME_OFFSET ( 5, 0, .BEHIND. ) ;
#13 = MANIFOLD_SOLID_BREP ( 'Boss-Extrude1', #50 ) ;
#14 = CARTESIAN_POINT ( 'NONE',  ( 25.39999999999999858, 3.110602869834276865E-15, 3.000000000000000000 ) ) ;
#15 = DATE_AND_TIME ( #76, #55 ) ;
#16 = DIRECTION ( 'NONE',  ( -1.000000000000000000, 0.000000000000000000, 0.000000000000000000 ) ) ;
#17 = CC_DESIGN_DATE_AND_TIME_ASSIGNMENT ( #22, #96, ( #145 ) ) ;
#18 = PERSON_AND_ORGANIZATION ( #64, #54 ) ;
#19 =( GEOMETRIC_REPRESENTATION_CONTEXT ( 3 ) GLOBAL_UNCERTAINTY_ASSIGNED_CONTEXT ( ( #130 ) ) GLOBAL_UNIT_ASSIGNED_CONTEXT ( ( #123, #40, #136 ) ) REPRESENTATION_CONTEXT ( 'NONE', 'WORKASPACE' ) );
#20 = COORDINATED_UNIVERSAL_TIME_OFFSET ( 5, 0, .BEHIND. ) ;
#21 = AXIS2_PLACEMENT_3D ( 'NONE', #11, #92, #34 ) ;
#22 = DATE_AND_TIME ( #27, #68 ) ;
#23 = DIRECTION ( 'NONE',  ( -0.000000000000000000, -0.000000000000000000, -1.000000000000000000 ) ) ;
#24 = CC_DESIGN_DATE_AND_TIME_ASSIGNMENT ( #171, #32, ( #31 ) ) ;
#25 = DIRECTION ( 'NONE',  ( 0.000000000000000000, 0.000000000000000000, 1.000000000000000000 ) ) ;
#26 = VERTEX_POINT ( 'NONE', #121 ) ;
#27 = CALENDAR_DATE ( 2021, 19, 4 ) ;
#28 = CARTESIAN_POINT ( 'NONE',  ( -25.39999999999999858, 0.000000000000000000, 3.000000000000000000 ) ) ;
#29 = EDGE_LOOP ( 'NONE', ( #170, #84 ) ) ;
#30 = VERTEX_POINT ( 'NONE', #83 ) ;
#31 = PRODUCT_DEFINITION ( 'UNKNOWN', '', #112, #167 ) ;
#32 = DATE_TIME_ROLE ( 'creation_date' ) ;
#33 = APPROVAL_PERSON_ORGANIZATION ( #69, #60, #116 ) ;
#34 = DIRECTION ( 'NONE',  ( 1.000000000000000000, 0.000000000000000000, 0.000000000000000000 ) ) ;
#35 = ADVANCED_FACE ( 'NONE', ( #8 ), #42, .F. ) ;
#36 = APPROVAL ( #72, 'UNSPECIFIED' ) ;
#37 = LOCAL_TIME ( 15, 6, 35.00000000000000000, #86 ) ;
#38 = CALENDAR_DATE ( 2021, 19, 4 ) ;
#39 = DIRECTION ( 'NONE',  ( 1.000000000000000000, 0.000000000000000000, 0.000000000000000000 ) ) ;
#40 =( NAMED_UNIT ( * ) PLANE_ANGLE_UNIT ( ) SI_UNIT ( $, .RADIAN. ) );
#41 = ORIENTED_EDGE ( 'NONE', *, *, #53, .T. ) ;
#42 = PLANE ( 'NONE',  #90 ) ;
#43 = APPROVAL_PERSON_ORGANIZATION ( #174, #56, #6 ) ;
#44 = EDGE_CURVE ( 'NONE', #142, #30, #77, .T. ) ;
#45 = CIRCLE ( 'NONE', #95, 25.39999999999999858 ) ;
#46 = CC_DESIGN_APPROVAL ( #36, ( #145 ) ) ;
#47 = PERSON_AND_ORGANIZATION_ROLE ( 'creator' ) ;
#48 = LINE ( 'NONE', #28, #74 ) ;
#49 = ADVANCED_BREP_SHAPE_REPRESENTATION ( 'Web Model 17283_17283', ( #13, #21 ), #19 ) ;
#50 = CLOSED_SHELL ( 'NONE', ( #106, #65, #155, #35 ) ) ;
#51 = ORIENTED_EDGE ( 'NONE', *, *, #133, .T. ) ;
#52 = DIRECTION ( 'NONE',  ( 0.000000000000000000, 0.000000000000000000, 1.000000000000000000 ) ) ;
#53 = EDGE_CURVE ( 'NONE', #110, #142, #120, .T. ) ;
#54 = ORGANIZATION ( 'UNSPECIFIED', 'UNSPECIFIED', '' ) ;
#55 = LOCAL_TIME ( 15, 6, 35.00000000000000000, #138 ) ;
#56 = APPROVAL ( #5, 'UNSPECIFIED' ) ;
#57 = ORIENTED_EDGE ( 'NONE', *, *, #53, .F. ) ;
#58 = APPROVAL_DATE_TIME ( #15, #60 ) ;
#59 = MECHANICAL_CONTEXT ( 'NONE', #173, 'mechanical' ) ;
#60 = APPROVAL ( #101, 'UNSPECIFIED' ) ;
#61 = APPROVAL_PERSON_ORGANIZATION ( #131, #36, #153 ) ;
#62 = FACE_OUTER_BOUND ( 'NONE', #134, .T. ) ;
#63 = EDGE_CURVE ( 'NONE', #110, #26, #48, .T. ) ;
#64 = PERSON ( 'UNSPECIFIED', 'UNSPECIFIED', 'UNSPECIFIED', ('UNSPECIFIED'), ('UNSPECIFIED'), ('UNSPECIFIED') ) ;
#65 = ADVANCED_FACE ( 'NONE', ( #148 ), #94, .T. ) ;
#66 = CC_DESIGN_APPROVAL ( #56, ( #31 ) ) ;
#67 = DIRECTION ( 'NONE',  ( 0.000000000000000000, 0.000000000000000000, 1.000000000000000000 ) ) ;
#68 = LOCAL_TIME ( 15, 6, 35.00000000000000000, #20 ) ;
#69 = PERSON_AND_ORGANIZATION ( #64, #54 ) ;
#70 = CIRCLE ( 'NONE', #122, 25.39999999999999858 ) ;
#71 = CARTESIAN_POINT ( 'NONE',  ( -25.39999999999999858, 0.000000000000000000, 3.000000000000000000 ) ) ;
#72 = APPROVAL_STATUS ( 'not_yet_approved' ) ;
#73 = PERSON_AND_ORGANIZATION ( #64, #54 ) ;
#74 = VECTOR ( 'NONE', #79, 1000.000000000000000 ) ;
#75 = CC_DESIGN_APPROVAL ( #60, ( #112 ) ) ;
#76 = CALENDAR_DATE ( 2021, 19, 4 ) ;
#77 = LINE ( 'NONE', #124, #88 ) ;
#78 = PLANE ( 'NONE',  #109 ) ;
#79 = DIRECTION ( 'NONE',  ( -0.000000000000000000, -0.000000000000000000, -1.000000000000000000 ) ) ;
#80 = ORIENTED_EDGE ( 'NONE', *, *, #162, .T. ) ;
#81 = APPLICATION_PROTOCOL_DEFINITION ( 'international standard', 'config_control_design', 1994, #173 ) ;
#82 = SHAPE_DEFINITION_REPRESENTATION ( #128, #49 ) ;
#83 = CARTESIAN_POINT ( 'NONE',  ( 25.39999999999999858, 3.110602869834276865E-15, 0.000000000000000000 ) ) ;
#84 = ORIENTED_EDGE ( 'NONE', *, *, #1, .F. ) ;
#85 = PERSON_AND_ORGANIZATION_ROLE ( 'creator' ) ;
#86 = COORDINATED_UNIVERSAL_TIME_OFFSET ( 5, 0, .BEHIND. ) ;
#87 = PERSON_AND_ORGANIZATION_ROLE ( 'classification_officer' ) ;
#88 = VECTOR ( 'NONE', #93, 1000.000000000000000 ) ;
#89 = DIRECTION ( 'NONE',  ( 0.000000000000000000, 0.000000000000000000, 1.000000000000000000 ) ) ;
#90 = AXIS2_PLACEMENT_3D ( 'NONE', #2, #25, #149 ) ;
#91 = PRODUCT ( 'Web Model 17283_17283', 'Web Model 17283_17283', '', ( #59 ) ) ;
#92 = DIRECTION ( 'NONE',  ( 0.000000000000000000, 0.000000000000000000, 1.000000000000000000 ) ) ;
#93 = DIRECTION ( 'NONE',  ( -0.000000000000000000, -0.000000000000000000, -1.000000000000000000 ) ) ;
#94 = CYLINDRICAL_SURFACE ( 'NONE', #151, 25.39999999999999858 ) ;
#95 = AXIS2_PLACEMENT_3D ( 'NONE', #165, #52, #125 ) ;
#96 = DATE_TIME_ROLE ( 'classification_date' ) ;
#97 = CC_DESIGN_SECURITY_CLASSIFICATION ( #145, ( #112 ) ) ;
#98 = LOCAL_TIME ( 15, 6, 35.00000000000000000, #12 ) ;
#99 = ORIENTED_EDGE ( 'NONE', *, *, #44, .T. ) ;
#100 = SECURITY_CLASSIFICATION_LEVEL ( 'unclassified' ) ;
#101 = APPROVAL_STATUS ( 'not_yet_approved' ) ;
#102 = LOCAL_TIME ( 15, 6, 35.00000000000000000, #7 ) ;
#103 = AXIS2_PLACEMENT_3D ( 'NONE', #160, #150, #111 ) ;
#104 = PERSON_AND_ORGANIZATION ( #64, #54 ) ;
#105 = AXIS2_PLACEMENT_3D ( 'NONE', #159, #107, #137 ) ;
#106 = ADVANCED_FACE ( 'NONE', ( #115 ), #117, .T. ) ;
#107 = DIRECTION ( 'NONE',  ( 0.000000000000000000, 0.000000000000000000, 1.000000000000000000 ) ) ;
#108 = DIRECTION ( 'NONE',  ( 0.000000000000000000, 0.000000000000000000, 1.000000000000000000 ) ) ;
#109 = AXIS2_PLACEMENT_3D ( 'NONE', #172, #89, #135 ) ;
#110 = VERTEX_POINT ( 'NONE', #71 ) ;
#111 = DIRECTION ( 'NONE',  ( -1.000000000000000000, 0.000000000000000000, 0.000000000000000000 ) ) ;
#112 = PRODUCT_DEFINITION_FORMATION_WITH_SPECIFIED_SOURCE ( 'ANY', '', #91, .NOT_KNOWN. ) ;
#113 = APPROVAL_DATE_TIME ( #152, #36 ) ;
#114 = APPLICATION_CONTEXT ( 'configuration controlled 3d designs of mechanical parts and assemblies' ) ;
#115 = FACE_OUTER_BOUND ( 'NONE', #169, .T. ) ;
#116 = APPROVAL_ROLE ( '' ) ;
#117 = CYLINDRICAL_SURFACE ( 'NONE', #103, 25.39999999999999858 ) ;
#118 = ORIENTED_EDGE ( 'NONE', *, *, #44, .F. ) ;
#119 = AXIS2_PLACEMENT_3D ( 'NONE', #175, #108, #39 ) ;
#120 = CIRCLE ( 'NONE', #105, 25.39999999999999858 ) ;
#121 = CARTESIAN_POINT ( 'NONE',  ( -25.39999999999999858, 0.000000000000000000, 0.000000000000000000 ) ) ;
#122 = AXIS2_PLACEMENT_3D ( 'NONE', #144, #67, #147 ) ;
#123 =( LENGTH_UNIT ( ) NAMED_UNIT ( * ) SI_UNIT ( .MILLI., .METRE. ) );
#124 = CARTESIAN_POINT ( 'NONE',  ( 25.39999999999999858, 3.110602869834276865E-15, 3.000000000000000000 ) ) ;
#125 = DIRECTION ( 'NONE',  ( 1.000000000000000000, 0.000000000000000000, 0.000000000000000000 ) ) ;
#126 = ORIENTED_EDGE ( 'NONE', *, *, #63, .F. ) ;
#127 = APPROVAL_DATE_TIME ( #158, #56 ) ;
#128 = PRODUCT_DEFINITION_SHAPE ( 'NONE', 'NONE',  #31 ) ;
#129 = PERSON_AND_ORGANIZATION_ROLE ( 'design_supplier' ) ;
#130 = UNCERTAINTY_MEASURE_WITH_UNIT (LENGTH_MEASURE( 1.000000000000000082E-05 ), #123, 'distance_accuracy_value', 'NONE');
#131 = PERSON_AND_ORGANIZATION ( #64, #54 ) ;
#132 = CC_DESIGN_PERSON_AND_ORGANIZATION_ASSIGNMENT ( #18, #4, ( #91 ) ) ;
#133 = EDGE_CURVE ( 'NONE', #142, #110, #70, .T. ) ;
#134 = EDGE_LOOP ( 'NONE', ( #41, #51 ) ) ;
#135 = DIRECTION ( 'NONE',  ( 1.000000000000000000, 0.000000000000000000, -0.000000000000000000 ) ) ;
#136 =( NAMED_UNIT ( * ) SI_UNIT ( $, .STERADIAN. ) SOLID_ANGLE_UNIT ( ) );
#137 = DIRECTION ( 'NONE',  ( 1.000000000000000000, 0.000000000000000000, 0.000000000000000000 ) ) ;
#138 = COORDINATED_UNIVERSAL_TIME_OFFSET ( 5, 0, .BEHIND. ) ;
#139 = CC_DESIGN_PERSON_AND_ORGANIZATION_ASSIGNMENT ( #163, #129, ( #112 ) ) ;
#140 = CALENDAR_DATE ( 2021, 19, 4 ) ;
#141 = APPLICATION_PROTOCOL_DEFINITION ( 'international standard', 'config_control_design', 1994, #114 ) ;
#142 = VERTEX_POINT ( 'NONE', #14 ) ;
#143 = ORIENTED_EDGE ( 'NONE', *, *, #133, .F. ) ;
#144 = CARTESIAN_POINT ( 'NONE',  ( 0.000000000000000000, 0.000000000000000000, 3.000000000000000000 ) ) ;
#145 = SECURITY_CLASSIFICATION ( '', '', #100 ) ;
#146 = CALENDAR_DATE ( 2021, 19, 4 ) ;
#147 = DIRECTION ( 'NONE',  ( 1.000000000000000000, 0.000000000000000000, 0.000000000000000000 ) ) ;
#148 = FACE_OUTER_BOUND ( 'NONE', #10, .T. ) ;
#149 = DIRECTION ( 'NONE',  ( 1.000000000000000000, 0.000000000000000000, -0.000000000000000000 ) ) ;
#150 = DIRECTION ( 'NONE',  ( -0.000000000000000000, -0.000000000000000000, -1.000000000000000000 ) ) ;
#151 = AXIS2_PLACEMENT_3D ( 'NONE', #161, #23, #16 ) ;
#152 = DATE_AND_TIME ( #146, #98 ) ;
#153 = APPROVAL_ROLE ( '' ) ;
#154 = CIRCLE ( 'NONE', #119, 25.39999999999999858 ) ;
#155 = ADVANCED_FACE ( 'NONE', ( #62 ), #78, .T. ) ;
#156 = CC_DESIGN_PERSON_AND_ORGANIZATION_ASSIGNMENT ( #104, #47, ( #31 ) ) ;
#157 = ORIENTED_EDGE ( 'NONE', *, *, #1, .T. ) ;
#158 = DATE_AND_TIME ( #140, #37 ) ;
#159 = CARTESIAN_POINT ( 'NONE',  ( 0.000000000000000000, 0.000000000000000000, 3.000000000000000000 ) ) ;
#160 = CARTESIAN_POINT ( 'NONE',  ( 0.000000000000000000, 0.000000000000000000, 3.000000000000000000 ) ) ;
#161 = CARTESIAN_POINT ( 'NONE',  ( 0.000000000000000000, 0.000000000000000000, 3.000000000000000000 ) ) ;
#162 = EDGE_CURVE ( 'NONE', #26, #30, #154, .T. ) ;
#163 = PERSON_AND_ORGANIZATION ( #64, #54 ) ;
#164 = PRODUCT_RELATED_PRODUCT_CATEGORY ( 'detail', '', ( #91 ) ) ;
#165 = CARTESIAN_POINT ( 'NONE',  ( 0.000000000000000000, 0.000000000000000000, 0.000000000000000000 ) ) ;
#166 = CC_DESIGN_PERSON_AND_ORGANIZATION_ASSIGNMENT ( #73, #85, ( #112 ) ) ;
#167 = DESIGN_CONTEXT ( 'detailed design', #114, 'design' ) ;
#168 = ORIENTED_EDGE ( 'NONE', *, *, #63, .T. ) ;
#169 = EDGE_LOOP ( 'NONE', ( #143, #99, #157, #126 ) ) ;
#170 = ORIENTED_EDGE ( 'NONE', *, *, #162, .F. ) ;
#171 = DATE_AND_TIME ( #38, #102 ) ;
#172 = CARTESIAN_POINT ( 'NONE',  ( 0.000000000000000000, 0.000000000000000000, 3.000000000000000000 ) ) ;
#173 = APPLICATION_CONTEXT ( 'configuration controlled 3d designs of mechanical parts and assemblies' ) ;
#174 = PERSON_AND_ORGANIZATION ( #64, #54 ) ;
#175 = CARTESIAN_POINT ( 'NONE',  ( 0.000000000000000000, 0.000000000000000000, 0.000000000000000000 ) ) ;
ENDSEC;
END-ISO-10303-21;
