ISO-10303-21;
HEADER;
FILE_DESCRIPTION (( 'STEP AP203' ),
    '1' );
FILE_NAME ('Web Model 11894_11894.step',
    '2019-04-22T14:53:56',
    ( '' ),
    ( '' ),
    'SwSTEP 2.0',
    'SolidWorks 2018',
    '' );
FILE_SCHEMA (( 'CONFIG_CONTROL_DESIGN' ));
ENDSEC;

DATA;
#1 = APPLICATION_PROTOCOL_DEFINITION ( 'international standard', 'config_control_design', 1994, #48 ) ;
#2 = PERSON_AND_ORGANIZATION ( #95, #139 ) ;
#3 = SECURITY_CLASSIFICATION ( '', '', #142 ) ;
#4 = APPROVAL_DATE_TIME ( #54, #93 ) ;
#5 = DIRECTION ( 'NONE',  ( -1.000000000000000000, -0.0000000000000000000, -0.0000000000000000000 ) ) ;
#6 = DATE_TIME_ROLE ( 'classification_date' ) ;
#7 = EDGE_CURVE ( 'NONE', #45, #41, #14, .T. ) ;
#8 = UNCERTAINTY_MEASURE_WITH_UNIT (LENGTH_MEASURE( 1.000000000000000082E-05 ), #28, 'distance_accuracy_value', 'NONE');
#9 = VECTOR ( 'NONE', #5, 1000.000000000000000 ) ;
#10 =( GEOMETRIC_REPRESENTATION_CONTEXT ( 3 ) GLOBAL_UNCERTAINTY_ASSIGNED_CONTEXT ( ( #8 ) ) GLOBAL_UNIT_ASSIGNED_CONTEXT ( ( #28, #137, #96 ) ) REPRESENTATION_CONTEXT ( 'NONE', 'WORKASPACE' ) );
#11 = DIRECTION ( 'NONE',  ( 1.000000000000000000, 0.0000000000000000000, 0.0000000000000000000 ) ) ;
#12 = VECTOR ( 'NONE', #151, 1000.000000000000000 ) ;
#13 = DATE_AND_TIME ( #52, #83 ) ;
#14 = CIRCLE ( 'NONE', #64, 2.500000000000000444 ) ;
#15 = CC_DESIGN_APPROVAL ( #157, ( #3 ) ) ;
#16 = FACE_OUTER_BOUND ( 'NONE', #169, .T. ) ;
#17 = PRODUCT_DEFINITION ( 'UNKNOWN', '', #120, #122 ) ;
#18 = EDGE_CURVE ( 'NONE', #41, #133, #77, .T. ) ;
#19 = APPROVAL_ROLE ( '' ) ;
#20 = APPROVAL_ROLE ( '' ) ;
#21 = DATE_AND_TIME ( #66, #69 ) ;
#22 = AXIS2_PLACEMENT_3D ( 'NONE', #23, #78, #174 ) ;
#23 = CARTESIAN_POINT ( 'NONE',  ( 0.5000000000000000000, 0.0000000000000000000, 0.0000000000000000000 ) ) ;
#24 = DIRECTION ( 'NONE',  ( 1.000000000000000000, 0.0000000000000000000, 0.0000000000000000000 ) ) ;
#25 = CARTESIAN_POINT ( 'NONE',  ( 0.5000000000000000000, 0.0000000000000000000, 0.0000000000000000000 ) ) ;
#26 = AXIS2_PLACEMENT_3D ( 'NONE', #67, #172, #146 ) ;
#27 = ORIENTED_EDGE ( 'NONE', *, *, #44, .T. ) ;
#28 =( LENGTH_UNIT ( ) NAMED_UNIT ( * ) SI_UNIT ( .MILLI., .METRE. ) );
#29 = PERSON_AND_ORGANIZATION_ROLE ( 'creator' ) ;
#30 = PERSON_AND_ORGANIZATION ( #95, #139 ) ;
#31 = DIRECTION ( 'NONE',  ( 0.0000000000000000000, 0.0000000000000000000, 1.000000000000000000 ) ) ;
#32 = AXIS2_PLACEMENT_3D ( 'NONE', #82, #134, #40 ) ;
#33 = ORIENTED_EDGE ( 'NONE', *, *, #7, .T. ) ;
#34 = APPROVAL_STATUS ( 'not_yet_approved' ) ;
#35 = CALENDAR_DATE ( 2019, 22, 4 ) ;
#36 = PERSON_AND_ORGANIZATION ( #95, #139 ) ;
#37 = CIRCLE ( 'NONE', #32, 2.500000000000000444 ) ;
#38 = CARTESIAN_POINT ( 'NONE',  ( 0.5000000000000000000, 0.0000000000000000000, 2.500000000000000444 ) ) ;
#39 = DIRECTION ( 'NONE',  ( 0.0000000000000000000, 0.0000000000000000000, -1.000000000000000000 ) ) ;
#40 = DIRECTION ( 'NONE',  ( 0.0000000000000000000, 0.0000000000000000000, -1.000000000000000000 ) ) ;
#41 = VERTEX_POINT ( 'NONE', #115 ) ;
#42 = CC_DESIGN_SECURITY_CLASSIFICATION ( #3, ( #120 ) ) ;
#43 = COORDINATED_UNIVERSAL_TIME_OFFSET ( 5, 0, .BEHIND. ) ;
#44 = EDGE_CURVE ( 'NONE', #41, #45, #121, .T. ) ;
#45 = VERTEX_POINT ( 'NONE', #38 ) ;
#46 = APPLICATION_PROTOCOL_DEFINITION ( 'international standard', 'config_control_design', 1994, #158 ) ;
#47 = PERSON_AND_ORGANIZATION_ROLE ( 'creator' ) ;
#48 = APPLICATION_CONTEXT ( 'configuration controlled 3d designs of mechanical parts and assemblies' ) ;
#49 = APPROVAL_STATUS ( 'not_yet_approved' ) ;
#50 = CYLINDRICAL_SURFACE ( 'NONE', #138, 2.500000000000000444 ) ;
#51 = PERSON_AND_ORGANIZATION ( #95, #139 ) ;
#52 = CALENDAR_DATE ( 2019, 22, 4 ) ;
#53 = ORIENTED_EDGE ( 'NONE', *, *, #79, .T. ) ;
#54 = DATE_AND_TIME ( #87, #91 ) ;
#55 = CARTESIAN_POINT ( 'NONE',  ( 0.5000000000000000000, 3.061616997868383634E-16, -2.500000000000000444 ) ) ;
#56 = SHAPE_DEFINITION_REPRESENTATION ( #110, #135 ) ;
#57 = EDGE_CURVE ( 'NONE', #133, #167, #124, .T. ) ;
#58 = PERSON_AND_ORGANIZATION ( #95, #139 ) ;
#59 = APPROVAL ( #49, 'UNSPECIFIED' ) ;
#60 = PERSON_AND_ORGANIZATION_ROLE ( 'classification_officer' ) ;
#61 = APPROVAL_PERSON_ORGANIZATION ( #58, #93, #19 ) ;
#62 = CLOSED_SHELL ( 'NONE', ( #117, #128, #75, #109 ) ) ;
#63 = EDGE_LOOP ( 'NONE', ( #143, #136, #84, #94 ) ) ;
#64 = AXIS2_PLACEMENT_3D ( 'NONE', #101, #159, #116 ) ;
#65 = CARTESIAN_POINT ( 'NONE',  ( -0.5000000000000000000, 0.0000000000000000000, 0.0000000000000000000 ) ) ;
#66 = CALENDAR_DATE ( 2019, 22, 4 ) ;
#67 = CARTESIAN_POINT ( 'NONE',  ( -0.5000000000000000000, 0.0000000000000000000, 0.0000000000000000000 ) ) ;
#68 = LOCAL_TIME ( 10, 53, 56.00000000000000000, #113 ) ;
#69 = LOCAL_TIME ( 10, 53, 56.00000000000000000, #140 ) ;
#70 = CC_DESIGN_PERSON_AND_ORGANIZATION_ASSIGNMENT ( #162, #73, ( #71 ) ) ;
#71 = PRODUCT ( 'Web Model 11894_11894', 'Web Model 11894_11894', '', ( #72 ) ) ;
#72 = MECHANICAL_CONTEXT ( 'NONE', #158, 'mechanical' ) ;
#73 = PERSON_AND_ORGANIZATION_ROLE ( 'design_owner' ) ;
#74 = DIRECTION ( 'NONE',  ( -1.000000000000000000, -0.0000000000000000000, -0.0000000000000000000 ) ) ;
#75 = ADVANCED_FACE ( 'NONE', ( #103 ), #164, .T. ) ;
#76 = CARTESIAN_POINT ( 'NONE',  ( 0.5000000000000000000, 0.0000000000000000000, 0.0000000000000000000 ) ) ;
#77 = LINE ( 'NONE', #55, #9 ) ;
#78 = DIRECTION ( 'NONE',  ( -1.000000000000000000, -0.0000000000000000000, -0.0000000000000000000 ) ) ;
#79 = EDGE_CURVE ( 'NONE', #45, #167, #99, .T. ) ;
#80 = AXIS2_PLACEMENT_3D ( 'NONE', #88, #31, #86 ) ;
#81 = EDGE_LOOP ( 'NONE', ( #33, #27 ) ) ;
#82 = CARTESIAN_POINT ( 'NONE',  ( -0.5000000000000000000, 0.0000000000000000000, 0.0000000000000000000 ) ) ;
#83 = LOCAL_TIME ( 10, 53, 56.00000000000000000, #114 ) ;
#84 = ORIENTED_EDGE ( 'NONE', *, *, #57, .T. ) ;
#85 = ORIENTED_EDGE ( 'NONE', *, *, #18, .F. ) ;
#86 = DIRECTION ( 'NONE',  ( 1.000000000000000000, 0.0000000000000000000, 0.0000000000000000000 ) ) ;
#87 = CALENDAR_DATE ( 2019, 22, 4 ) ;
#88 = CARTESIAN_POINT ( 'NONE',  ( 0.0000000000000000000, 0.0000000000000000000, 0.0000000000000000000 ) ) ;
#89 = AXIS2_PLACEMENT_3D ( 'NONE', #161, #24, #152 ) ;
#90 = APPROVAL_DATE_TIME ( #168, #59 ) ;
#91 = LOCAL_TIME ( 10, 53, 56.00000000000000000, #43 ) ;
#92 = DIRECTION ( 'NONE',  ( 1.000000000000000000, 0.0000000000000000000, 0.0000000000000000000 ) ) ;
#93 = APPROVAL ( #127, 'UNSPECIFIED' ) ;
#94 = ORIENTED_EDGE ( 'NONE', *, *, #79, .F. ) ;
#95 = PERSON ( 'UNSPECIFIED', 'UNSPECIFIED', 'UNSPECIFIED', ('UNSPECIFIED'), ('UNSPECIFIED'), ('UNSPECIFIED') ) ;
#96 =( NAMED_UNIT ( * ) SI_UNIT ( $, .STERADIAN. ) SOLID_ANGLE_UNIT ( ) );
#97 = AXIS2_PLACEMENT_3D ( 'NONE', #65, #11, #39 ) ;
#98 = DIRECTION ( 'NONE',  ( 0.0000000000000000000, 0.0000000000000000000, 1.000000000000000000 ) ) ;
#99 = LINE ( 'NONE', #132, #12 ) ;
#100 = LOCAL_TIME ( 10, 53, 56.00000000000000000, #141 ) ;
#101 = CARTESIAN_POINT ( 'NONE',  ( 0.5000000000000000000, 0.0000000000000000000, 0.0000000000000000000 ) ) ;
#102 = CC_DESIGN_APPROVAL ( #93, ( #17 ) ) ;
#103 = FACE_OUTER_BOUND ( 'NONE', #81, .T. ) ;
#104 = CC_DESIGN_DATE_AND_TIME_ASSIGNMENT ( #13, #144, ( #17 ) ) ;
#105 = APPROVAL_PERSON_ORGANIZATION ( #155, #59, #106 ) ;
#106 = APPROVAL_ROLE ( '' ) ;
#107 = FACE_OUTER_BOUND ( 'NONE', #126, .T. ) ;
#108 = MANIFOLD_SOLID_BREP ( '47833-1-solid1', #62 ) ;
#109 = ADVANCED_FACE ( 'NONE', ( #107 ), #163, .F. ) ;
#110 = PRODUCT_DEFINITION_SHAPE ( 'NONE', 'NONE',  #17 ) ;
#111 = CC_DESIGN_PERSON_AND_ORGANIZATION_ASSIGNMENT ( #36, #47, ( #17 ) ) ;
#112 = ORIENTED_EDGE ( 'NONE', *, *, #123, .T. ) ;
#113 = COORDINATED_UNIVERSAL_TIME_OFFSET ( 5, 0, .BEHIND. ) ;
#114 = COORDINATED_UNIVERSAL_TIME_OFFSET ( 5, 0, .BEHIND. ) ;
#115 = CARTESIAN_POINT ( 'NONE',  ( 0.5000000000000000000, 3.061616997868383634E-16, -2.500000000000000444 ) ) ;
#116 = DIRECTION ( 'NONE',  ( 0.0000000000000000000, 0.0000000000000000000, -1.000000000000000000 ) ) ;
#117 = ADVANCED_FACE ( 'NONE', ( #150 ), #156, .T. ) ;
#118 = CARTESIAN_POINT ( 'NONE',  ( -0.5000000000000000000, 0.0000000000000000000, 2.500000000000000444 ) ) ;
#119 = DATE_AND_TIME ( #130, #68 ) ;
#120 = PRODUCT_DEFINITION_FORMATION_WITH_SPECIFIED_SOURCE ( 'ANY', '', #71, .NOT_KNOWN. ) ;
#121 = CIRCLE ( 'NONE', #147, 2.500000000000000444 ) ;
#122 = DESIGN_CONTEXT ( 'detailed design', #48, 'design' ) ;
#123 = EDGE_CURVE ( 'NONE', #167, #133, #37, .T. ) ;
#124 = CIRCLE ( 'NONE', #26, 2.500000000000000444 ) ;
#125 = CC_DESIGN_DATE_AND_TIME_ASSIGNMENT ( #119, #6, ( #3 ) ) ;
#126 = EDGE_LOOP ( 'NONE', ( #175, #165 ) ) ;
#127 = APPROVAL_STATUS ( 'not_yet_approved' ) ;
#128 = ADVANCED_FACE ( 'NONE', ( #16 ), #50, .T. ) ;
#129 = CC_DESIGN_APPROVAL ( #59, ( #120 ) ) ;
#130 = CALENDAR_DATE ( 2019, 22, 4 ) ;
#131 = CC_DESIGN_PERSON_AND_ORGANIZATION_ASSIGNMENT ( #30, #60, ( #3 ) ) ;
#132 = CARTESIAN_POINT ( 'NONE',  ( 0.5000000000000000000, 0.0000000000000000000, 2.500000000000000444 ) ) ;
#133 = VERTEX_POINT ( 'NONE', #153 ) ;
#134 = DIRECTION ( 'NONE',  ( 1.000000000000000000, 0.0000000000000000000, 0.0000000000000000000 ) ) ;
#135 = ADVANCED_BREP_SHAPE_REPRESENTATION ( 'Web Model 11894_11894', ( #108, #80 ), #10 ) ;
#136 = ORIENTED_EDGE ( 'NONE', *, *, #18, .T. ) ;
#137 =( NAMED_UNIT ( * ) PLANE_ANGLE_UNIT ( ) SI_UNIT ( $, .RADIAN. ) );
#138 = AXIS2_PLACEMENT_3D ( 'NONE', #25, #74, #98 ) ;
#139 = ORGANIZATION ( 'UNSPECIFIED', 'UNSPECIFIED', '' ) ;
#140 = COORDINATED_UNIVERSAL_TIME_OFFSET ( 5, 0, .BEHIND. ) ;
#141 = COORDINATED_UNIVERSAL_TIME_OFFSET ( 5, 0, .BEHIND. ) ;
#142 = SECURITY_CLASSIFICATION_LEVEL ( 'unclassified' ) ;
#143 = ORIENTED_EDGE ( 'NONE', *, *, #44, .F. ) ;
#144 = DATE_TIME_ROLE ( 'creation_date' ) ;
#145 = PRODUCT_RELATED_PRODUCT_CATEGORY ( 'detail', '', ( #71 ) ) ;
#146 = DIRECTION ( 'NONE',  ( 0.0000000000000000000, 0.0000000000000000000, -1.000000000000000000 ) ) ;
#147 = AXIS2_PLACEMENT_3D ( 'NONE', #76, #92, #173 ) ;
#148 = APPROVAL_PERSON_ORGANIZATION ( #51, #157, #20 ) ;
#149 = CC_DESIGN_PERSON_AND_ORGANIZATION_ASSIGNMENT ( #166, #29, ( #120 ) ) ;
#150 = FACE_OUTER_BOUND ( 'NONE', #63, .T. ) ;
#151 = DIRECTION ( 'NONE',  ( -1.000000000000000000, -0.0000000000000000000, -0.0000000000000000000 ) ) ;
#152 = DIRECTION ( 'NONE',  ( 0.0000000000000000000, 0.0000000000000000000, -1.000000000000000000 ) ) ;
#153 = CARTESIAN_POINT ( 'NONE',  ( -0.5000000000000000000, 3.061616997868383634E-16, -2.500000000000000444 ) ) ;
#154 = PERSON_AND_ORGANIZATION_ROLE ( 'design_supplier' ) ;
#155 = PERSON_AND_ORGANIZATION ( #95, #139 ) ;
#156 = CYLINDRICAL_SURFACE ( 'NONE', #22, 2.500000000000000444 ) ;
#157 = APPROVAL ( #34, 'UNSPECIFIED' ) ;
#158 = APPLICATION_CONTEXT ( 'configuration controlled 3d designs of mechanical parts and assemblies' ) ;
#159 = DIRECTION ( 'NONE',  ( 1.000000000000000000, 0.0000000000000000000, 0.0000000000000000000 ) ) ;
#160 = ORIENTED_EDGE ( 'NONE', *, *, #7, .F. ) ;
#161 = CARTESIAN_POINT ( 'NONE',  ( 0.5000000000000000000, 0.0000000000000000000, 0.0000000000000000000 ) ) ;
#162 = PERSON_AND_ORGANIZATION ( #95, #139 ) ;
#163 = PLANE ( 'NONE',  #97 ) ;
#164 = PLANE ( 'NONE',  #89 ) ;
#165 = ORIENTED_EDGE ( 'NONE', *, *, #57, .F. ) ;
#166 = PERSON_AND_ORGANIZATION ( #95, #139 ) ;
#167 = VERTEX_POINT ( 'NONE', #118 ) ;
#168 = DATE_AND_TIME ( #35, #100 ) ;
#169 = EDGE_LOOP ( 'NONE', ( #85, #160, #53, #112 ) ) ;
#170 = APPROVAL_DATE_TIME ( #21, #157 ) ;
#171 = CC_DESIGN_PERSON_AND_ORGANIZATION_ASSIGNMENT ( #2, #154, ( #120 ) ) ;
#172 = DIRECTION ( 'NONE',  ( 1.000000000000000000, 0.0000000000000000000, 0.0000000000000000000 ) ) ;
#173 = DIRECTION ( 'NONE',  ( 0.0000000000000000000, 0.0000000000000000000, -1.000000000000000000 ) ) ;
#174 = DIRECTION ( 'NONE',  ( 0.0000000000000000000, 0.0000000000000000000, 1.000000000000000000 ) ) ;
#175 = ORIENTED_EDGE ( 'NONE', *, *, #123, .F. ) ;
ENDSEC;
END-ISO-10303-21;
