ISO-10303-21;
HEADER;
FILE_DESCRIPTION (( 'STEP AP203' ),
    '1' );
FILE_NAME ('5mm BEAMSPLITTER CUBE TS_35961.step',
    '2017-07-18T13:26:26',
    ( '' ),
    ( '' ),
    'SwSTEP 2.0',
    'SolidWorks 2016',
    '' );
FILE_SCHEMA (( 'CONFIG_CONTROL_DESIGN' ));
ENDSEC;

DATA;
#1 = CALENDAR_DATE ( 2017, 18, 7 ) ;
#2 = CC_DESIGN_SECURITY_CLASSIFICATION ( #261, ( #173 ) ) ;
#3 = LOCAL_TIME ( 9, 26, 26.00000000000000000, #63 ) ;
#4 = CC_DESIGN_PERSON_AND_ORGANIZATION_ASSIGNMENT ( #193, #290, ( #131 ) ) ;
#5 = DIRECTION ( 'NONE',  ( -0.7071067811865512400, -0.7071067811865439100, 0.0000000000000000000 ) ) ;
#6 = APPROVAL ( #52, 'UNSPECIFIED' ) ;
#7 = COORDINATED_UNIVERSAL_TIME_OFFSET ( 5, 0, .BEHIND. ) ;
#8 = LOCAL_TIME ( 9, 26, 26.00000000000000000, #81 ) ;
#9 = DIRECTION ( 'NONE',  ( 1.000000000000000000, 0.0000000000000000000, 0.0000000000000000000 ) ) ;
#10 = ORIENTED_EDGE ( 'NONE', *, *, #31, .T. ) ;
#11 =( NAMED_UNIT ( * ) PLANE_ANGLE_UNIT ( ) SI_UNIT ( $, .RADIAN. ) );
#12 = AXIS2_PLACEMENT_3D ( 'NONE', #22, #346, #321 ) ;
#13 = EDGE_CURVE ( 'NONE', #303, #246, #162, .T. ) ;
#14 = PRODUCT_DEFINITION_SHAPE ( 'NONE', 'NONE',  #360 ) ;
#15 = DIRECTION ( 'NONE',  ( 0.0000000000000000000, 0.0000000000000000000, 1.000000000000000000 ) ) ;
#16 = PERSON_AND_ORGANIZATION ( #105, #264 ) ;
#17 = CC_DESIGN_DATE_AND_TIME_ASSIGNMENT ( #216, #135, ( #295 ) ) ;
#18 = APPROVAL_PERSON_ORGANIZATION ( #49, #6, #309 ) ;
#19 = DIRECTION ( 'NONE',  ( -0.7071067811865512400, 0.7071067811865439100, 0.0000000000000000000 ) ) ;
#20 = PRODUCT_RELATED_PRODUCT_CATEGORY ( 'detail', '', ( #75 ) ) ;
#21 = PERSON ( 'NAUO-PER2', 'UNSPECIFIED', 'UNSPECIFIED', ('UNSPECIFIED'), ('UNSPECIFIED'), ('UNSPECIFIED') ) ;
#22 = CARTESIAN_POINT ( 'NONE',  ( 2.167624834490815300E-016, 3.535533905932719100, 2.500000000000000000 ) ) ;
#23 = LINE ( 'NONE', #60, #191 ) ;
#24 = VECTOR ( 'NONE', #263, 1000.000000000000000 ) ;
#25 = PRODUCT_DEFINITION ( 'UNKNOWN', '', #116, #108 ) ;
#26 = APPROVAL_DATE_TIME ( #88, #38 ) ;
#27 = CC_DESIGN_APPROVAL ( #6, ( #308 ) ) ;
#28 = PERSON_AND_ORGANIZATION ( #41, #29 ) ;
#29 = ORGANIZATION ( 'NAUO-ORG1', 'UNSPECIFIED', 'UNSPECIFIED' ) ;
#30 = DATE_TIME_ROLE ( 'classification_date' ) ;
#31 = EDGE_CURVE ( 'NONE', #343, #134, #96, .T. ) ;
#32 = DATE_AND_TIME ( #187, #332 ) ;
#33 = CC_DESIGN_PERSON_AND_ORGANIZATION_ASSIGNMENT ( #61, #50, ( #295 ) ) ;
#34 = CC_DESIGN_SECURITY_CLASSIFICATION ( #345, ( #360 ) ) ;
#35 = CALENDAR_DATE ( 2017, 18, 7 ) ;
#36 = ORIENTED_EDGE ( 'NONE', *, *, #318, .T. ) ;
#37 = ORIENTED_EDGE ( 'NONE', *, *, #13, .T. ) ;
#38 = APPROVAL ( #158, 'UNSPECIFIED' ) ;
#39 = CC_DESIGN_SECURITY_CLASSIFICATION ( #308, ( #116 ) ) ;
#40 = PLANE ( 'NONE',  #164 ) ;
#41 = PERSON ( 'NAUO-PER1', 'UNSPECIFIED', 'UNSPECIFIED', ('UNSPECIFIED'), ('UNSPECIFIED'), ('UNSPECIFIED') ) ;
#42 = CARTESIAN_POINT ( 'NONE',  ( -3.535533905932756400, 0.0000000000000000000, 2.500000000000000000 ) ) ;
#43 = AXIS2_PLACEMENT_3D ( 'NONE', #286, #338, #122 ) ;
#44 = EDGE_CURVE ( 'NONE', #303, #257, #170, .T. ) ;
#45 = CONTEXT_DEPENDENT_SHAPE_REPRESENTATION ( #253, #14 ) ;
#46 = UNCERTAINTY_MEASURE_WITH_UNIT (LENGTH_MEASURE( 1.000000000000000100E-005 ), #211, 'distance_accuracy_value', 'NONE');
#47 =( REPRESENTATION_RELATIONSHIP ('NONE','NONE', #203, #201 ) REPRESENTATION_RELATIONSHIP_WITH_TRANSFORMATION ( #298 )SHAPE_REPRESENTATION_RELATIONSHIP( ) );
#48 = PERSON_AND_ORGANIZATION_ROLE ( 'classification_officer' ) ;
#49 = PERSON_AND_ORGANIZATION ( #105, #264 ) ;
#50 = PERSON_AND_ORGANIZATION_ROLE ( 'classification_officer' ) ;
#51 = APPROVAL ( #226, 'UNKNOWN' ) ;
#52 = APPROVAL_STATUS ( 'not_yet_approved' ) ;
#53 = COORDINATED_UNIVERSAL_TIME_OFFSET ( 5, 0, .BEHIND. ) ;
#54 = CC_DESIGN_APPROVAL ( #38, ( #25 ) ) ;
#55 = MECHANICAL_CONTEXT ( 'NONE', #342, 'mechanical' ) ;
#56 = DIRECTION ( 'NONE',  ( 0.0000000000000000000, 0.0000000000000000000, 1.000000000000000000 ) ) ;
#57 = EDGE_LOOP ( 'NONE', ( #10, #67, #280, #178 ) ) ;
#58 = PRODUCT_RELATED_PRODUCT_CATEGORY ( 'detail', '', ( #131 ) ) ;
#59 = DATE_AND_TIME ( #119, #128 ) ;
#60 = CARTESIAN_POINT ( 'NONE',  ( 2.167624834490815300E-016, 3.535533905932719100, 2.500000000000000000 ) ) ;
#61 = PERSON_AND_ORGANIZATION ( #21, #139 ) ;
#62 = APPROVAL_PERSON_ORGANIZATION ( #197, #38, #146 ) ;
#63 = COORDINATED_UNIVERSAL_TIME_OFFSET ( 5, 0, .BEHIND. ) ;
#64 = EDGE_CURVE ( 'NONE', #257, #343, #301, .T. ) ;
#65 = PERSON_AND_ORGANIZATION ( #105, #264 ) ;
#66 = DIRECTION ( 'NONE',  ( -0.7071067811865512400, -0.7071067811865439100, 0.0000000000000000000 ) ) ;
#67 = ORIENTED_EDGE ( 'NONE', *, *, #227, .F. ) ;
#68 = CARTESIAN_POINT ( 'NONE',  ( 0.0000000000000000000, 0.0000000000000000000, 0.0000000000000000000 ) ) ;
#69 = PRODUCT_DEFINITION_SHAPE ( 'NONE', 'NONE',  #80 ) ;
#70 = LOCAL_TIME ( 9, 26, 26.00000000000000000, #147 ) ;
#71 = PLANE ( 'NONE',  #43 ) ;
#72 = CC_DESIGN_APPROVAL ( #51, ( #345 ) ) ;
#73 = PERSON_AND_ORGANIZATION ( #105, #264 ) ;
#74 = DIRECTION ( 'NONE',  ( 1.000000000000000000, 0.0000000000000000000, -0.0000000000000000000 ) ) ;
#75 = PRODUCT ( '5x5 Right Angle Prism Master', '5x5 Right Angle Prism Master', '', ( #55 ) ) ;
#76 =( NAMED_UNIT ( * ) SI_UNIT ( $, .STERADIAN. ) SOLID_ANGLE_UNIT ( ) );
#77 = CC_DESIGN_PERSON_AND_ORGANIZATION_ASSIGNMENT ( #242, #233, ( #25 ) ) ;
#78 = APPROVAL_DATE_TIME ( #87, #190 ) ;
#79 = COORDINATED_UNIVERSAL_TIME_OFFSET ( 5, 0, .BEHIND. ) ;
#80 = PRODUCT_DEFINITION ( 'UNKNOWN', '', #173, #260 ) ;
#81 = COORDINATED_UNIVERSAL_TIME_OFFSET ( 5, 0, .BEHIND. ) ;
#82 = APPROVAL_DATE_TIME ( #132, #102 ) ;
#83 = LINE ( 'NONE', #179, #217 ) ;
#84 = VECTOR ( 'NONE', #66, 999.9999999999998900 ) ;
#85 = AXIS2_PLACEMENT_3D ( 'NONE', #250, #127, #265 ) ;
#86 = DATE_AND_TIME ( #163, #251 ) ;
#87 = DATE_AND_TIME ( #230, #302 ) ;
#88 = DATE_AND_TIME ( #107, #235 ) ;
#89 = CARTESIAN_POINT ( 'NONE',  ( -3.535533905932756400, 0.0000000000000000000, -2.500000000000000000 ) ) ;
#90 = DIRECTION ( 'NONE',  ( 0.0000000000000000000, 0.0000000000000000000, 1.000000000000000000 ) ) ;
#91 = ORIENTED_EDGE ( 'NONE', *, *, #356, .F. ) ;
#92 = CC_DESIGN_DATE_AND_TIME_ASSIGNMENT ( #189, #30, ( #345 ) ) ;
#93 = FACE_OUTER_BOUND ( 'NONE', #185, .T. ) ;
#94 = APPROVAL_PERSON_ORGANIZATION ( #138, #190, #313 ) ;
#95 = DIRECTION ( 'NONE',  ( 1.000000000000000000, 0.0000000000000000000, 0.0000000000000000000 ) ) ;
#96 = LINE ( 'NONE', #130, #84 ) ;
#97 = ADVANCED_FACE ( 'NONE', ( #316 ), #224, .F. ) ;
#98 = CC_DESIGN_DATE_AND_TIME_ASSIGNMENT ( #221, #125, ( #25 ) ) ;
#99 = CARTESIAN_POINT ( 'NONE',  ( 0.0000000000000000000, 0.0000000000000000000, 0.0000000000000000000 ) ) ;
#100 = CALENDAR_DATE ( 2017, 18, 7 ) ;
#101 = CARTESIAN_POINT ( 'NONE',  ( -3.535533905932756400, 0.0000000000000000000, 2.500000000000000000 ) ) ;
#102 = APPROVAL ( #300, 'UNSPECIFIED' ) ;
#103 = DIRECTION ( 'NONE',  ( 0.0000000000000000000, 0.0000000000000000000, 1.000000000000000000 ) ) ;
#104 = DIRECTION ( 'NONE',  ( 1.000000000000000000, 0.0000000000000000000, 0.0000000000000000000 ) ) ;
#105 = PERSON ( 'UNSPECIFIED', 'UNSPECIFIED', 'UNSPECIFIED', ('UNSPECIFIED'), ('UNSPECIFIED'), ('UNSPECIFIED') ) ;
#106 = APPROVAL_DATE_TIME ( #32, #51 ) ;
#107 = CALENDAR_DATE ( 2017, 18, 7 ) ;
#108 = DESIGN_CONTEXT ( 'detailed design', #126, 'design' ) ;
#109 = DATE_AND_TIME ( #326, #3 ) ;
#110 = VECTOR ( 'NONE', #199, 1000.000000000000000 ) ;
#111 = MANIFOLD_SOLID_BREP ( 'Boss-Extrude1', #328 ) ;
#112 = COORDINATED_UNIVERSAL_TIME_OFFSET ( 5, 0, .BEHIND. ) ;
#113 = EDGE_LOOP ( 'NONE', ( #37, #317, #36 ) ) ;
#114 = CARTESIAN_POINT ( 'NONE',  ( 0.0000000000000000000, 0.0000000000000000000, 0.0000000000000000000 ) ) ;
#115 = ADVANCED_BREP_SHAPE_REPRESENTATION ( '', ( #111, #180 ), #141 ) ;
#116 = PRODUCT_DEFINITION_FORMATION_WITH_SPECIFIED_SOURCE ( 'ANY', '', #131, .NOT_KNOWN. ) ;
#117 = CC_DESIGN_APPROVAL ( #102, ( #80 ) ) ;
#118 = CARTESIAN_POINT ( 'NONE',  ( 3.535533905932756400, -4.329780281177489400E-016, -2.500000000000000000 ) ) ;
#119 = CALENDAR_DATE ( 2017, 18, 7 ) ;
#120 = DIRECTION ( 'NONE',  ( 5.551115123125782700E-017, -1.232595164407830900E-032, 1.000000000000000200 ) ) ;
#121 = APPLICATION_PROTOCOL_DEFINITION ( 'international standard', 'config_control_design', 1994, #220 ) ;
#122 = DIRECTION ( 'NONE',  ( 0.7071067811865512400, -0.7071067811865439100, 0.0000000000000000000 ) ) ;
#123 = ORIENTED_EDGE ( 'NONE', *, *, #292, .T. ) ;
#124 = AXIS2_PLACEMENT_3D ( 'NONE', #344, #56, #74 ) ;
#125 = DATE_TIME_ROLE ( 'creation_date' ) ;
#126 = APPLICATION_CONTEXT ( 'configuration controlled 3d designs of mechanical parts and assemblies' ) ;
#127 = DIRECTION ( 'NONE',  ( 0.0000000000000000000, 0.0000000000000000000, 1.000000000000000000 ) ) ;
#128 = LOCAL_TIME ( 9, 26, 26.00000000000000000, #137 ) ;
#129 = APPLICATION_CONTEXT ( 'configuration controlled 3d designs of mechanical parts and assemblies' ) ;
#130 = CARTESIAN_POINT ( 'NONE',  ( 2.167624834490815300E-016, 3.535533905932719100, -2.500000000000000000 ) ) ;
#131 = PRODUCT ( '5mm BEAMSPLITTER CUBE TS_35961', '5mm BEAMSPLITTER CUBE TS_35961', '', ( #254 ) ) ;
#132 = DATE_AND_TIME ( #140, #149 ) ;
#133 = APPROVAL ( #252, 'UNSPECIFIED' ) ;
#134 = VERTEX_POINT ( 'NONE', #89 ) ;
#135 = DATE_TIME_ROLE ( 'classification_date' ) ;
#136 = CC_DESIGN_PERSON_AND_ORGANIZATION_ASSIGNMENT ( #73, #214, ( #80 ) ) ;
#137 = COORDINATED_UNIVERSAL_TIME_OFFSET ( 5, 0, .BEHIND. ) ;
#138 = PERSON_AND_ORGANIZATION ( #105, #264 ) ;
#139 = ORGANIZATION ( 'NAUO-ORG2', 'UNSPECIFIED', 'UNSPECIFIED' ) ;
#140 = CALENDAR_DATE ( 2017, 18, 7 ) ;
#141 =( GEOMETRIC_REPRESENTATION_CONTEXT ( 3 ) GLOBAL_UNCERTAINTY_ASSIGNED_CONTEXT ( ( #46 ) ) GLOBAL_UNIT_ASSIGNED_CONTEXT ( ( #211, #11, #76 ) ) REPRESENTATION_CONTEXT ( 'NONE', 'WORKASPACE' ) );
#142 = APPROVAL_PERSON_ORGANIZATION ( #65, #324, #213 ) ;
#143 = DATE_TIME_ROLE ( 'classification_date' ) ;
#144 = DIRECTION ( 'NONE',  ( -0.0000000000000000000, -0.0000000000000000000, -1.000000000000000000 ) ) ;
#145 = EDGE_LOOP ( 'NONE', ( #123, #349, #231, #166 ) ) ;
#146 = APPROVAL_ROLE ( '' ) ;
#147 = COORDINATED_UNIVERSAL_TIME_OFFSET ( 5, 0, .BEHIND. ) ;
#148 = APPROVAL_ROLE ( '' ) ;
#149 = LOCAL_TIME ( 9, 26, 26.00000000000000000, #159 ) ;
#150 = APPROVAL_ROLE ( '' ) ;
#151 = PERSON_AND_ORGANIZATION ( #105, #264 ) ;
#152 = PLANE ( 'NONE',  #85 ) ;
#153 = PERSON_AND_ORGANIZATION ( #105, #264 ) ;
#154 = LOCAL_TIME ( 9, 26, 26.00000000000000000, #168 ) ;
#155 = CARTESIAN_POINT ( 'NONE',  ( 0.0000000000000000000, 0.0000000000000000000, 0.0000000000000000000 ) ) ;
#156 = CC_DESIGN_DATE_AND_TIME_ASSIGNMENT ( #109, #243, ( #80 ) ) ;
#157 = PERSON_AND_ORGANIZATION_ROLE ( 'design_supplier' ) ;
#158 = APPROVAL_STATUS ( 'not_yet_approved' ) ;
#159 = COORDINATED_UNIVERSAL_TIME_OFFSET ( 5, 0, .BEHIND. ) ;
#160 = CARTESIAN_POINT ( 'NONE',  ( 3.535533905932756400, -4.329780281177489400E-016, 2.500000000000000000 ) ) ;
#161 = VECTOR ( 'NONE', #209, 1000.000000000000000 ) ;
#162 = LINE ( 'NONE', #256, #110 ) ;
#163 = CALENDAR_DATE ( 2017, 18, 7 ) ;
#164 = AXIS2_PLACEMENT_3D ( 'NONE', #101, #259, #353 ) ;
#165 = PERSON_AND_ORGANIZATION ( #105, #264 ) ;
#166 = ORIENTED_EDGE ( 'NONE', *, *, #227, .T. ) ;
#167 = APPROVAL_STATUS ( 'not_yet_approved' ) ;
#168 = COORDINATED_UNIVERSAL_TIME_OFFSET ( 5, 0, .BEHIND. ) ;
#169 = VECTOR ( 'NONE', #19, 1000.000000000000000 ) ;
#170 = LINE ( 'NONE', #160, #24 ) ;
#171 = PERSON_AND_ORGANIZATION ( #105, #264 ) ;
#172 =( NAMED_UNIT ( * ) SI_UNIT ( $, .STERADIAN. ) SOLID_ANGLE_UNIT ( ) );
#173 = PRODUCT_DEFINITION_FORMATION_WITH_SPECIFIED_SOURCE ( 'ANY', '', #75, .NOT_KNOWN. ) ;
#174 = APPROVAL_STATUS ( 'not_yet_approved' ) ;
#175 = CALENDAR_DATE ( 2017, 18, 7 ) ;
#176 = SECURITY_CLASSIFICATION_LEVEL ( 'unclassified' ) ;
#177 = CARTESIAN_POINT ( 'NONE',  ( 3.535533905932756400, -4.329780281177489400E-016, 2.500000000000000000 ) ) ;
#178 = ORIENTED_EDGE ( 'NONE', *, *, #356, .T. ) ;
#179 = CARTESIAN_POINT ( 'NONE',  ( -3.535533905932756400, 0.0000000000000000000, -2.500000000000000000 ) ) ;
#180 = AXIS2_PLACEMENT_3D ( 'NONE', #293, #15, #9 ) ;
#181 = ORIENTED_EDGE ( 'NONE', *, *, #13, .F. ) ;
#182 = APPROVAL_DATE_TIME ( #192, #133 ) ;
#183 = PLANE ( 'NONE',  #124 ) ;
#184 = CARTESIAN_POINT ( 'NONE',  ( 3.535533905932756400, -4.329780281177489400E-016, -2.500000000000000000 ) ) ;
#185 = EDGE_LOOP ( 'NONE', ( #239, #91, #181, #270 ) ) ;
#186 = LOCAL_TIME ( 9, 26, 26.00000000000000000, #53 ) ;
#187 = CALENDAR_DATE ( 2017, 18, 7 ) ;
#188 = ORIENTED_EDGE ( 'NONE', *, *, #292, .F. ) ;
#189 = DATE_AND_TIME ( #175, #154 ) ;
#190 = APPROVAL ( #167, 'UNSPECIFIED' ) ;
#191 = VECTOR ( 'NONE', #144, 1000.000000000000000 ) ;
#192 = DATE_AND_TIME ( #196, #262 ) ;
#193 = PERSON_AND_ORGANIZATION ( #105, #264 ) ;
#194 = APPROVAL_PERSON_ORGANIZATION ( #28, #51, #148 ) ;
#195 = VECTOR ( 'NONE', #355, 1000.000000000000000 ) ;
#196 = CALENDAR_DATE ( 2017, 18, 7 ) ;
#197 = PERSON_AND_ORGANIZATION ( #105, #264 ) ;
#198 = PERSON_AND_ORGANIZATION_ROLE ( 'design_owner' ) ;
#199 = DIRECTION ( 'NONE',  ( -0.7071067811865512400, 0.7071067811865439100, 0.0000000000000000000 ) ) ;
#200 = APPROVAL_PERSON_ORGANIZATION ( #210, #102, #268 ) ;
#201 = SHAPE_REPRESENTATION ( '5x5 Right Angle Prism Master', ( #180 ), #141 ) ;
#202 = ADVANCED_FACE ( 'NONE', ( #93 ), #71, .F. ) ;
#203 = SHAPE_REPRESENTATION ( '5mm BEAMSPLITTER CUBE TS_35961', ( #304, #232, #247 ), #266 ) ;
#204 = PERSON_AND_ORGANIZATION_ROLE ( 'creator' ) ;
#205 = FACE_OUTER_BOUND ( 'NONE', #327, .T. ) ;
#206 = CC_DESIGN_APPROVAL ( #190, ( #173 ) ) ;
#207 = SECURITY_CLASSIFICATION_LEVEL ( 'unclassified' ) ;
#208 = APPROVAL_DATE_TIME ( #283, #336 ) ;
#209 = DIRECTION ( 'NONE',  ( -0.0000000000000000000, -0.0000000000000000000, -1.000000000000000000 ) ) ;
#210 = PERSON_AND_ORGANIZATION ( #105, #264 ) ;
#211 =( LENGTH_UNIT ( ) NAMED_UNIT ( * ) SI_UNIT ( .MILLI., .METRE. ) );
#212 = AXIS2_PLACEMENT_3D ( 'NONE', #68, #90, #95 ) ;
#213 = APPROVAL_ROLE ( '' ) ;
#214 = PERSON_AND_ORGANIZATION_ROLE ( 'creator' ) ;
#215 = LINE ( 'NONE', #325, #350 ) ;
#216 = DATE_AND_TIME ( #289, #8 ) ;
#217 = VECTOR ( 'NONE', #279, 1000.000000000000000 ) ;
#218 = APPROVAL_ROLE ( '' ) ;
#219 = COORDINATED_UNIVERSAL_TIME_OFFSET ( 5, 0, .BEHIND. ) ;
#220 = APPLICATION_CONTEXT ( 'configuration controlled 3d designs of mechanical parts and assemblies' ) ;
#221 = DATE_AND_TIME ( #100, #297 ) ;
#222 = PRODUCT_DEFINITION_SHAPE ( 'NONE', 'NONE',  #361 ) ;
#223 = CC_DESIGN_PERSON_AND_ORGANIZATION_ASSIGNMENT ( #16, #274, ( #173 ) ) ;
#224 = PLANE ( 'NONE',  #12 ) ;
#225 = PERSON_AND_ORGANIZATION ( #105, #264 ) ;
#226 = APPROVAL_STATUS ( 'not_yet_approved' ) ;
#227 = EDGE_CURVE ( 'NONE', #248, #134, #237, .T. ) ;
#228 = SECURITY_CLASSIFICATION_LEVEL ( 'unclassified' ) ;
#229 = FACE_OUTER_BOUND ( 'NONE', #113, .T. ) ;
#230 = CALENDAR_DATE ( 2017, 18, 7 ) ;
#231 = ORIENTED_EDGE ( 'NONE', *, *, #318, .F. ) ;
#232 = AXIS2_PLACEMENT_3D ( 'NONE', #99, #103, #104 ) ;
#233 = PERSON_AND_ORGANIZATION_ROLE ( 'creator' ) ;
#234 = ADVANCED_FACE ( 'NONE', ( #229 ), #152, .T. ) ;
#235 = LOCAL_TIME ( 9, 26, 26.00000000000000000, #112 ) ;
#236 =( NAMED_UNIT ( * ) PLANE_ANGLE_UNIT ( ) SI_UNIT ( $, .RADIAN. ) );
#237 = LINE ( 'NONE', #281, #161 ) ;
#238 = COORDINATED_UNIVERSAL_TIME_OFFSET ( 5, 0, .BEHIND. ) ;
#239 = ORIENTED_EDGE ( 'NONE', *, *, #64, .T. ) ;
#240 = APPROVAL_STATUS ( 'not_yet_approved' ) ;
#241 = UNCERTAINTY_MEASURE_WITH_UNIT (LENGTH_MEASURE( 1.000000000000000100E-005 ), #278, 'distance_accuracy_value', 'NONE');
#242 = PERSON_AND_ORGANIZATION ( #105, #264 ) ;
#243 = DATE_TIME_ROLE ( 'creation_date' ) ;
#244 = CC_DESIGN_PERSON_AND_ORGANIZATION_ASSIGNMENT ( #296, #157, ( #173 ) ) ;
#245 = APPROVAL_DATE_TIME ( #255, #324 ) ;
#246 = VERTEX_POINT ( 'NONE', #337 ) ;
#247 = AXIS2_PLACEMENT_3D ( 'NONE', #114, #120, #288 ) ;
#248 = VERTEX_POINT ( 'NONE', #42 ) ;
#249 = CC_DESIGN_APPROVAL ( #133, ( #116 ) ) ;
#250 = CARTESIAN_POINT ( 'NONE',  ( 0.0000000000000000000, 0.0000000000000000000, 2.500000000000000000 ) ) ;
#251 = LOCAL_TIME ( 9, 26, 26.00000000000000000, #219 ) ;
#252 = APPROVAL_STATUS ( 'not_yet_approved' ) ;
#253 =( REPRESENTATION_RELATIONSHIP ('NONE','NONE', #203, #201 ) REPRESENTATION_RELATIONSHIP_WITH_TRANSFORMATION ( #320 )SHAPE_REPRESENTATION_RELATIONSHIP( ) );
#254 = MECHANICAL_CONTEXT ( 'NONE', #129, 'mechanical' ) ;
#255 = DATE_AND_TIME ( #35, #186 ) ;
#256 = CARTESIAN_POINT ( 'NONE',  ( 3.535533905932756400, -4.329780281177489400E-016, 2.500000000000000000 ) ) ;
#257 = VERTEX_POINT ( 'NONE', #184 ) ;
#258 = APPLICATION_PROTOCOL_DEFINITION ( 'international standard', 'config_control_design', 1994, #126 ) ;
#259 = DIRECTION ( 'NONE',  ( 6.123233995736766000E-017, 1.000000000000000000, -0.0000000000000000000 ) ) ;
#260 = DESIGN_CONTEXT ( 'detailed design', #220, 'design' ) ;
#261 = SECURITY_CLASSIFICATION ( '', '', #311 ) ;
#262 = LOCAL_TIME ( 9, 26, 26.00000000000000000, #271 ) ;
#263 = DIRECTION ( 'NONE',  ( -0.0000000000000000000, -0.0000000000000000000, -1.000000000000000000 ) ) ;
#264 = ORGANIZATION ( 'UNSPECIFIED', 'UNSPECIFIED', '' ) ;
#265 = DIRECTION ( 'NONE',  ( 1.000000000000000000, 0.0000000000000000000, -0.0000000000000000000 ) ) ;
#266 =( GEOMETRIC_REPRESENTATION_CONTEXT ( 3 ) GLOBAL_UNCERTAINTY_ASSIGNED_CONTEXT ( ( #241 ) ) GLOBAL_UNIT_ASSIGNED_CONTEXT ( ( #278, #236, #172 ) ) REPRESENTATION_CONTEXT ( 'NONE', 'WORKASPACE' ) );
#267 = APPLICATION_PROTOCOL_DEFINITION ( 'international standard', 'config_control_design', 1994, #342 ) ;
#268 = APPROVAL_ROLE ( '' ) ;
#269 = CC_DESIGN_PERSON_AND_ORGANIZATION_ASSIGNMENT ( #171, #204, ( #116 ) ) ;
#270 = ORIENTED_EDGE ( 'NONE', *, *, #44, .T. ) ;
#271 = COORDINATED_UNIVERSAL_TIME_OFFSET ( 5, 0, .BEHIND. ) ;
#272 = CONTEXT_DEPENDENT_SHAPE_REPRESENTATION ( #47, #222 ) ;
#273 = SHAPE_DEFINITION_REPRESENTATION ( #69, #201 ) ;
#274 = PERSON_AND_ORGANIZATION_ROLE ( 'creator' ) ;
#275 = APPROVAL_DATE_TIME ( #284, #6 ) ;
#276 = PERSON_AND_ORGANIZATION_ROLE ( 'classification_officer' ) ;
#277 = CC_DESIGN_PERSON_AND_ORGANIZATION_ASSIGNMENT ( #28, #276, ( #345 ) ) ;
#278 =( LENGTH_UNIT ( ) NAMED_UNIT ( * ) SI_UNIT ( .MILLI., .METRE. ) );
#279 = DIRECTION ( 'NONE',  ( 1.000000000000000000, -6.123233995736766000E-017, 0.0000000000000000000 ) ) ;
#280 = ORIENTED_EDGE ( 'NONE', *, *, #359, .F. ) ;
#281 = CARTESIAN_POINT ( 'NONE',  ( -3.535533905932756400, 0.0000000000000000000, 2.500000000000000000 ) ) ;
#282 = CC_DESIGN_PERSON_AND_ORGANIZATION_ASSIGNMENT ( #151, #48, ( #261 ) ) ;
#283 = DATE_AND_TIME ( #1, #70 ) ;
#284 = DATE_AND_TIME ( #291, #354 ) ;
#285 = ORIENTED_EDGE ( 'NONE', *, *, #31, .F. ) ;
#286 = CARTESIAN_POINT ( 'NONE',  ( 3.535533905932756400, -4.329780281177489400E-016, 2.500000000000000000 ) ) ;
#287 = CC_DESIGN_PERSON_AND_ORGANIZATION_ASSIGNMENT ( #165, #306, ( #116 ) ) ;
#288 = DIRECTION ( 'NONE',  ( -1.000000000000000200, 0.0000000000000000000, 5.551115123125782700E-017 ) ) ;
#289 = CALENDAR_DATE ( 2017, 18, 7 ) ;
#290 = PERSON_AND_ORGANIZATION_ROLE ( 'design_owner' ) ;
#291 = CALENDAR_DATE ( 2017, 18, 7 ) ;
#292 = EDGE_CURVE ( 'NONE', #134, #257, #83, .T. ) ;
#293 = CARTESIAN_POINT ( 'NONE',  ( 0.0000000000000000000, 0.0000000000000000000, 0.0000000000000000000 ) ) ;
#294 = LINE ( 'NONE', #315, #195 ) ;
#295 = SECURITY_CLASSIFICATION ( '', '', #228 ) ;
#296 = PERSON_AND_ORGANIZATION ( #105, #264 ) ;
#297 = LOCAL_TIME ( 9, 26, 26.00000000000000000, #79 ) ;
#298 = ITEM_DEFINED_TRANSFORMATION ( 'NONE', 'NONE', #247,  #180 ) ;
#299 = CC_DESIGN_DATE_AND_TIME_ASSIGNMENT ( #86, #143, ( #261 ) ) ;
#300 = APPROVAL_STATUS ( 'not_yet_approved' ) ;
#301 = LINE ( 'NONE', #118, #169 ) ;
#302 = LOCAL_TIME ( 9, 26, 26.00000000000000000, #238 ) ;
#303 = VERTEX_POINT ( 'NONE', #177 ) ;
#304 = AXIS2_PLACEMENT_3D ( 'NONE', #155, #351, #312 ) ;
#305 = PRODUCT_DEFINITION_SHAPE ( 'NONE', 'NONE',  #25 ) ;
#306 = PERSON_AND_ORGANIZATION_ROLE ( 'design_supplier' ) ;
#307 = APPROVAL_PERSON_ORGANIZATION ( #339, #133, #150 ) ;
#308 = SECURITY_CLASSIFICATION ( '', '', #207 ) ;
#309 = APPROVAL_ROLE ( '' ) ;
#310 = SHAPE_REPRESENTATION_RELATIONSHIP ( 'NONE' , 'NONE' ,  #201, #115 ) ;
#311 = SECURITY_CLASSIFICATION_LEVEL ( 'unclassified' ) ;
#312 = DIRECTION ( 'NONE',  ( 1.000000000000000000, 0.0000000000000000000, 0.0000000000000000000 ) ) ;
#313 = APPROVAL_ROLE ( '' ) ;
#314 = APPLICATION_PROTOCOL_DEFINITION ( 'international standard', 'config_control_design', 1994, #129 ) ;
#315 = CARTESIAN_POINT ( 'NONE',  ( -3.535533905932756400, 0.0000000000000000000, 2.500000000000000000 ) ) ;
#316 = FACE_OUTER_BOUND ( 'NONE', #57, .T. ) ;
#317 = ORIENTED_EDGE ( 'NONE', *, *, #359, .T. ) ;
#318 = EDGE_CURVE ( 'NONE', #248, #303, #294, .T. ) ;
#319 = CARTESIAN_POINT ( 'NONE',  ( 2.167624834490815300E-016, 3.535533905932719100, -2.500000000000000000 ) ) ;
#320 = ITEM_DEFINED_TRANSFORMATION ( 'NONE', 'NONE', #232,  #180 ) ;
#321 = DIRECTION ( 'NONE',  ( 0.7071067811865512400, 0.7071067811865439100, 0.0000000000000000000 ) ) ;
#322 = CC_DESIGN_SECURITY_CLASSIFICATION ( #295, ( #361 ) ) ;
#323 = ADVANCED_FACE ( 'NONE', ( #205 ), #183, .F. ) ;
#324 = APPROVAL ( #240, 'UNSPECIFIED' ) ;
#325 = CARTESIAN_POINT ( 'NONE',  ( 2.167624834490815300E-016, 3.535533905932719100, 2.500000000000000000 ) ) ;
#326 = CALENDAR_DATE ( 2017, 18, 7 ) ;
#327 = EDGE_LOOP ( 'NONE', ( #329, #188, #285 ) ) ;
#328 = CLOSED_SHELL ( 'NONE', ( #202, #97, #347, #234, #323 ) ) ;
#329 = ORIENTED_EDGE ( 'NONE', *, *, #64, .F. ) ;
#330 = CC_DESIGN_PERSON_AND_ORGANIZATION_ASSIGNMENT ( #225, #198, ( #75 ) ) ;
#331 = CC_DESIGN_PERSON_AND_ORGANIZATION_ASSIGNMENT ( #153, #341, ( #308 ) ) ;
#332 = LOCAL_TIME ( 9, 26, 26.00000000000000000, #358 ) ;
#333 = FACE_OUTER_BOUND ( 'NONE', #145, .T. ) ;
#334 = DATE_TIME_ROLE ( 'classification_date' ) ;
#335 = SHAPE_DEFINITION_REPRESENTATION ( #305, #203 ) ;
#336 = APPROVAL ( #174, 'UNKNOWN' ) ;
#337 = CARTESIAN_POINT ( 'NONE',  ( 2.167624834490815300E-016, 3.535533905932719100, 2.500000000000000000 ) ) ;
#338 = DIRECTION ( 'NONE',  ( -0.7071067811865439100, -0.7071067811865512400, 0.0000000000000000000 ) ) ;
#339 = PERSON_AND_ORGANIZATION ( #105, #264 ) ;
#340 = CC_DESIGN_APPROVAL ( #324, ( #261 ) ) ;
#341 = PERSON_AND_ORGANIZATION_ROLE ( 'classification_officer' ) ;
#342 = APPLICATION_CONTEXT ( 'configuration controlled 3d designs of mechanical parts and assemblies' ) ;
#343 = VERTEX_POINT ( 'NONE', #319 ) ;
#344 = CARTESIAN_POINT ( 'NONE',  ( 0.0000000000000000000, 0.0000000000000000000, -2.500000000000000000 ) ) ;
#345 = SECURITY_CLASSIFICATION ( '', '', #176 ) ;
#346 = DIRECTION ( 'NONE',  ( 0.7071067811865439100, -0.7071067811865512400, 0.0000000000000000000 ) ) ;
#347 = ADVANCED_FACE ( 'NONE', ( #333 ), #40, .F. ) ;
#348 = CC_DESIGN_DATE_AND_TIME_ASSIGNMENT ( #59, #334, ( #308 ) ) ;
#349 = ORIENTED_EDGE ( 'NONE', *, *, #44, .F. ) ;
#350 = VECTOR ( 'NONE', #5, 999.9999999999998900 ) ;
#351 = DIRECTION ( 'NONE',  ( 0.0000000000000000000, 0.0000000000000000000, 1.000000000000000000 ) ) ;
#352 = APPROVAL_PERSON_ORGANIZATION ( #61, #336, #218 ) ;
#353 = DIRECTION ( 'NONE',  ( -1.000000000000000000, 6.123233995736766000E-017, 0.0000000000000000000 ) ) ;
#354 = LOCAL_TIME ( 9, 26, 26.00000000000000000, #7 ) ;
#355 = DIRECTION ( 'NONE',  ( 1.000000000000000000, -6.123233995736766000E-017, 0.0000000000000000000 ) ) ;
#356 = EDGE_CURVE ( 'NONE', #246, #343, #23, .T. ) ;
#357 = CC_DESIGN_APPROVAL ( #336, ( #295 ) ) ;
#358 = COORDINATED_UNIVERSAL_TIME_OFFSET ( 5, 0, .BEHIND. ) ;
#359 = EDGE_CURVE ( 'NONE', #246, #248, #215, .T. ) ;
#360 = NEXT_ASSEMBLY_USAGE_OCCURRENCE ( 'NAUO1', ' ', ' ', #25, #80, $ ) ;
#361 = NEXT_ASSEMBLY_USAGE_OCCURRENCE ( 'NAUO2', ' ', ' ', #25, #80, $ ) ;
ENDSEC;
END-ISO-10303-21;
