ISO-10303-21;
HEADER;
FILE_DESCRIPTION (( 'STEP AP203' ),
    '1' );
FILE_NAME ('34428_37011.step',
    '2017-09-06T15:36:41',
    ( '' ),
    ( '' ),
    'SwSTEP 2.0',
    'SolidWorks 2016',
    '' );
FILE_SCHEMA (( 'CONFIG_CONTROL_DESIGN' ));
ENDSEC;

DATA;
#1 = CARTESIAN_POINT ( 'NONE',  ( 0.0000000000000000000, 0.0000000000000000000, 0.0000000000000000000 ) ) ;
#2 = APPROVAL_ROLE ( '' ) ;
#3 = PERSON_AND_ORGANIZATION ( #129, #173 ) ;
#4 = PERSON_AND_ORGANIZATION ( #129, #173 ) ;
#5 = APPROVAL_DATE_TIME ( #38, #109 ) ;
#6 = DIRECTION ( 'NONE',  ( 1.000000000000000000, 0.0000000000000000000, -0.0000000000000000000 ) ) ;
#7 = PRODUCT_RELATED_PRODUCT_CATEGORY ( 'detail', '', ( #33 ) ) ;
#8 = DIRECTION ( 'NONE',  ( 0.0000000000000000000, 0.0000000000000000000, 1.000000000000000000 ) ) ;
#9 = EDGE_CURVE ( 'NONE', #127, #65, #41, .T. ) ;
#10 = CARTESIAN_POINT ( 'NONE',  ( 0.0000000000000000000, 0.0000000000000000000, 0.0000000000000000000 ) ) ;
#11 = DIRECTION ( 'NONE',  ( 1.000000000000000000, 0.0000000000000000000, -0.0000000000000000000 ) ) ;
#12 = PERSON_AND_ORGANIZATION_ROLE ( 'design_owner' ) ;
#13 = SHAPE_DEFINITION_REPRESENTATION ( #28, #172 ) ;
#14 = ORIENTED_EDGE ( 'NONE', *, *, #9, .T. ) ;
#15 = CARTESIAN_POINT ( 'NONE',  ( 0.0000000000000000000, 0.0000000000000000000, 0.0000000000000000000 ) ) ;
#16 = PERSON_AND_ORGANIZATION_ROLE ( 'classification_officer' ) ;
#17 = CIRCLE ( 'NONE', #42, 25.00000000000000000 ) ;
#18 = PERSON_AND_ORGANIZATION ( #129, #173 ) ;
#19 = AXIS2_PLACEMENT_3D ( 'NONE', #36, #49, #102 ) ;
#20 = CARTESIAN_POINT ( 'NONE',  ( 0.0000000000000000000, 0.0000000000000000000, 2.000000000000000000 ) ) ;
#21 = APPROVAL_PERSON_ORGANIZATION ( #135, #109, #133 ) ;
#22 = APPLICATION_CONTEXT ( 'configuration controlled 3d designs of mechanical parts and assemblies' ) ;
#23 = PRODUCT_DEFINITION ( 'UNKNOWN', '', #69, #31 ) ;
#24 = APPROVAL_STATUS ( 'not_yet_approved' ) ;
#25 = CYLINDRICAL_SURFACE ( 'NONE', #131, 25.00000000000000000 ) ;
#26 = CC_DESIGN_PERSON_AND_ORGANIZATION_ASSIGNMENT ( #52, #130, ( #23 ) ) ;
#27 = FACE_OUTER_BOUND ( 'NONE', #119, .T. ) ;
#28 = PRODUCT_DEFINITION_SHAPE ( 'NONE', 'NONE',  #23 ) ;
#29 = PERSON_AND_ORGANIZATION ( #129, #173 ) ;
#30 = AXIS2_PLACEMENT_3D ( 'NONE', #20, #8, #114 ) ;
#31 = DESIGN_CONTEXT ( 'detailed design', #22, 'design' ) ;
#32 = CALENDAR_DATE ( 2017, 6, 9 ) ;
#33 = PRODUCT ( '34428_37011', '34428_37011', '', ( #90 ) ) ;
#34 = LOCAL_TIME ( 11, 36, 41.00000000000000000, #105 ) ;
#35 = DIRECTION ( 'NONE',  ( 0.0000000000000000000, 0.0000000000000000000, 1.000000000000000000 ) ) ;
#36 = CARTESIAN_POINT ( 'NONE',  ( 0.0000000000000000000, 0.0000000000000000000, 2.000000000000000000 ) ) ;
#37 = DIRECTION ( 'NONE',  ( 1.000000000000000000, 0.0000000000000000000, 0.0000000000000000000 ) ) ;
#38 = DATE_AND_TIME ( #111, #150 ) ;
#39 = MANIFOLD_SOLID_BREP ( 'Boss-Extrude1', #58 ) ;
#40 = EDGE_LOOP ( 'NONE', ( #154, #123 ) ) ;
#41 = LINE ( 'NONE', #54, #103 ) ;
#42 = AXIS2_PLACEMENT_3D ( 'NONE', #1, #91, #37 ) ;
#43 = CARTESIAN_POINT ( 'NONE',  ( 0.0000000000000000000, 0.0000000000000000000, 2.000000000000000000 ) ) ;
#44 = APPLICATION_PROTOCOL_DEFINITION ( 'international standard', 'config_control_design', 1994, #106 ) ;
#45 = CIRCLE ( 'NONE', #163, 25.00000000000000000 ) ;
#46 = ORIENTED_EDGE ( 'NONE', *, *, #9, .F. ) ;
#47 = DIRECTION ( 'NONE',  ( 1.000000000000000000, 0.0000000000000000000, 0.0000000000000000000 ) ) ;
#48 = EDGE_CURVE ( 'NONE', #51, #157, #94, .T. ) ;
#49 = DIRECTION ( 'NONE',  ( -0.0000000000000000000, -0.0000000000000000000, -1.000000000000000000 ) ) ;
#50 = LOCAL_TIME ( 11, 36, 41.00000000000000000, #64 ) ;
#51 = VERTEX_POINT ( 'NONE', #171 ) ;
#52 = PERSON_AND_ORGANIZATION ( #129, #173 ) ;
#53 = ORIENTED_EDGE ( 'NONE', *, *, #110, .T. ) ;
#54 = CARTESIAN_POINT ( 'NONE',  ( -25.00000000000000000, 0.0000000000000000000, 2.000000000000000000 ) ) ;
#55 = CC_DESIGN_PERSON_AND_ORGANIZATION_ASSIGNMENT ( #147, #12, ( #33 ) ) ;
#56 = DIRECTION ( 'NONE',  ( -1.000000000000000000, 0.0000000000000000000, 0.0000000000000000000 ) ) ;
#57 = EDGE_LOOP ( 'NONE', ( #112, #95, #53, #46 ) ) ;
#58 = CLOSED_SHELL ( 'NONE', ( #137, #78, #104, #117 ) ) ;
#59 = CC_DESIGN_PERSON_AND_ORGANIZATION_ASSIGNMENT ( #29, #134, ( #69 ) ) ;
#60 = APPROVAL_PERSON_ORGANIZATION ( #18, #121, #115 ) ;
#61 = DATE_AND_TIME ( #170, #50 ) ;
#62 =( NAMED_UNIT ( * ) SI_UNIT ( $, .STERADIAN. ) SOLID_ANGLE_UNIT ( ) );
#63 = PERSON_AND_ORGANIZATION_ROLE ( 'creator' ) ;
#64 = COORDINATED_UNIVERSAL_TIME_OFFSET ( 5, 0, .BEHIND. ) ;
#65 = VERTEX_POINT ( 'NONE', #85 ) ;
#66 = CC_DESIGN_APPROVAL ( #121, ( #160 ) ) ;
#67 = DATE_AND_TIME ( #107, #97 ) ;
#68 = FACE_OUTER_BOUND ( 'NONE', #40, .T. ) ;
#69 = PRODUCT_DEFINITION_FORMATION_WITH_SPECIFIED_SOURCE ( 'ANY', '', #33, .NOT_KNOWN. ) ;
#70 = AXIS2_PLACEMENT_3D ( 'NONE', #43, #156, #6 ) ;
#71 = APPROVAL_PERSON_ORGANIZATION ( #143, #125, #2 ) ;
#72 = CC_DESIGN_DATE_AND_TIME_ASSIGNMENT ( #61, #149, ( #160 ) ) ;
#73 = FACE_OUTER_BOUND ( 'NONE', #57, .T. ) ;
#74 = FACE_OUTER_BOUND ( 'NONE', #122, .T. ) ;
#75 = APPROVAL_STATUS ( 'not_yet_approved' ) ;
#76 = APPROVAL_STATUS ( 'not_yet_approved' ) ;
#77 = DIRECTION ( 'NONE',  ( 0.0000000000000000000, 0.0000000000000000000, 1.000000000000000000 ) ) ;
#78 = ADVANCED_FACE ( 'NONE', ( #74 ), #25, .T. ) ;
#79 = COORDINATED_UNIVERSAL_TIME_OFFSET ( 5, 0, .BEHIND. ) ;
#80 = DIRECTION ( 'NONE',  ( 0.0000000000000000000, 0.0000000000000000000, 1.000000000000000000 ) ) ;
#81 = EDGE_CURVE ( 'NONE', #65, #157, #45, .T. ) ;
#82 =( GEOMETRIC_REPRESENTATION_CONTEXT ( 3 ) GLOBAL_UNCERTAINTY_ASSIGNED_CONTEXT ( ( #108 ) ) GLOBAL_UNIT_ASSIGNED_CONTEXT ( ( #164, #151, #62 ) ) REPRESENTATION_CONTEXT ( 'NONE', 'WORKASPACE' ) );
#83 = CIRCLE ( 'NONE', #136, 25.00000000000000000 ) ;
#84 = ORIENTED_EDGE ( 'NONE', *, *, #148, .T. ) ;
#85 = CARTESIAN_POINT ( 'NONE',  ( -25.00000000000000000, 0.0000000000000000000, 0.0000000000000000000 ) ) ;
#86 = CARTESIAN_POINT ( 'NONE',  ( 25.00000000000000000, 3.061616997868383000E-015, 2.000000000000000000 ) ) ;
#87 = PLANE ( 'NONE',  #70 ) ;
#88 = LOCAL_TIME ( 11, 36, 41.00000000000000000, #93 ) ;
#89 = CIRCLE ( 'NONE', #30, 25.00000000000000000 ) ;
#90 = MECHANICAL_CONTEXT ( 'NONE', #106, 'mechanical' ) ;
#91 = DIRECTION ( 'NONE',  ( 0.0000000000000000000, 0.0000000000000000000, 1.000000000000000000 ) ) ;
#92 = COORDINATED_UNIVERSAL_TIME_OFFSET ( 5, 0, .BEHIND. ) ;
#93 = COORDINATED_UNIVERSAL_TIME_OFFSET ( 5, 0, .BEHIND. ) ;
#94 = LINE ( 'NONE', #86, #165 ) ;
#95 = ORIENTED_EDGE ( 'NONE', *, *, #48, .T. ) ;
#96 = EDGE_CURVE ( 'NONE', #127, #51, #89, .T. ) ;
#97 = LOCAL_TIME ( 11, 36, 41.00000000000000000, #92 ) ;
#98 = CARTESIAN_POINT ( 'NONE',  ( 0.0000000000000000000, 0.0000000000000000000, 0.0000000000000000000 ) ) ;
#99 = DIRECTION ( 'NONE',  ( -0.0000000000000000000, -0.0000000000000000000, -1.000000000000000000 ) ) ;
#100 = DIRECTION ( 'NONE',  ( -0.0000000000000000000, -0.0000000000000000000, -1.000000000000000000 ) ) ;
#101 = DIRECTION ( 'NONE',  ( 1.000000000000000000, 0.0000000000000000000, 0.0000000000000000000 ) ) ;
#102 = DIRECTION ( 'NONE',  ( -1.000000000000000000, 0.0000000000000000000, 0.0000000000000000000 ) ) ;
#103 = VECTOR ( 'NONE', #144, 1000.000000000000000 ) ;
#104 = ADVANCED_FACE ( 'NONE', ( #27 ), #87, .T. ) ;
#105 = COORDINATED_UNIVERSAL_TIME_OFFSET ( 5, 0, .BEHIND. ) ;
#106 = APPLICATION_CONTEXT ( 'configuration controlled 3d designs of mechanical parts and assemblies' ) ;
#107 = CALENDAR_DATE ( 2017, 6, 9 ) ;
#108 = UNCERTAINTY_MEASURE_WITH_UNIT (LENGTH_MEASURE( 1.000000000000000100E-005 ), #164, 'distance_accuracy_value', 'NONE');
#109 = APPROVAL ( #76, 'UNSPECIFIED' ) ;
#110 = EDGE_CURVE ( 'NONE', #157, #65, #17, .T. ) ;
#111 = CALENDAR_DATE ( 2017, 6, 9 ) ;
#112 = ORIENTED_EDGE ( 'NONE', *, *, #148, .F. ) ;
#113 = PLANE ( 'NONE',  #140 ) ;
#114 = DIRECTION ( 'NONE',  ( 1.000000000000000000, 0.0000000000000000000, 0.0000000000000000000 ) ) ;
#115 = APPROVAL_ROLE ( '' ) ;
#116 = CC_DESIGN_APPROVAL ( #125, ( #69 ) ) ;
#117 = ADVANCED_FACE ( 'NONE', ( #68 ), #113, .F. ) ;
#118 = DIRECTION ( 'NONE',  ( 1.000000000000000000, 0.0000000000000000000, 0.0000000000000000000 ) ) ;
#119 = EDGE_LOOP ( 'NONE', ( #153, #84 ) ) ;
#120 = ORIENTED_EDGE ( 'NONE', *, *, #81, .T. ) ;
#121 = APPROVAL ( #24, 'UNSPECIFIED' ) ;
#122 = EDGE_LOOP ( 'NONE', ( #139, #168, #14, #120 ) ) ;
#123 = ORIENTED_EDGE ( 'NONE', *, *, #110, .F. ) ;
#124 = AXIS2_PLACEMENT_3D ( 'NONE', #98, #77, #47 ) ;
#125 = APPROVAL ( #75, 'UNSPECIFIED' ) ;
#126 = CYLINDRICAL_SURFACE ( 'NONE', #19, 25.00000000000000000 ) ;
#127 = VERTEX_POINT ( 'NONE', #162 ) ;
#128 = CC_DESIGN_APPROVAL ( #109, ( #23 ) ) ;
#129 = PERSON ( 'UNSPECIFIED', 'UNSPECIFIED', 'UNSPECIFIED', ('UNSPECIFIED'), ('UNSPECIFIED'), ('UNSPECIFIED') ) ;
#130 = PERSON_AND_ORGANIZATION_ROLE ( 'creator' ) ;
#131 = AXIS2_PLACEMENT_3D ( 'NONE', #159, #100, #56 ) ;
#132 = APPROVAL_DATE_TIME ( #142, #125 ) ;
#133 = APPROVAL_ROLE ( '' ) ;
#134 = PERSON_AND_ORGANIZATION_ROLE ( 'design_supplier' ) ;
#135 = PERSON_AND_ORGANIZATION ( #129, #173 ) ;
#136 = AXIS2_PLACEMENT_3D ( 'NONE', #175, #80, #118 ) ;
#137 = ADVANCED_FACE ( 'NONE', ( #73 ), #126, .T. ) ;
#138 = CC_DESIGN_PERSON_AND_ORGANIZATION_ASSIGNMENT ( #3, #16, ( #160 ) ) ;
#139 = ORIENTED_EDGE ( 'NONE', *, *, #48, .F. ) ;
#140 = AXIS2_PLACEMENT_3D ( 'NONE', #15, #35, #11 ) ;
#141 = APPROVAL_DATE_TIME ( #145, #121 ) ;
#142 = DATE_AND_TIME ( #169, #34 ) ;
#143 = PERSON_AND_ORGANIZATION ( #129, #173 ) ;
#144 = DIRECTION ( 'NONE',  ( -0.0000000000000000000, -0.0000000000000000000, -1.000000000000000000 ) ) ;
#145 = DATE_AND_TIME ( #32, #88 ) ;
#146 = CARTESIAN_POINT ( 'NONE',  ( 25.00000000000000000, 3.061616997868383000E-015, 0.0000000000000000000 ) ) ;
#147 = PERSON_AND_ORGANIZATION ( #129, #173 ) ;
#148 = EDGE_CURVE ( 'NONE', #51, #127, #83, .T. ) ;
#149 = DATE_TIME_ROLE ( 'classification_date' ) ;
#150 = LOCAL_TIME ( 11, 36, 41.00000000000000000, #79 ) ;
#151 =( NAMED_UNIT ( * ) PLANE_ANGLE_UNIT ( ) SI_UNIT ( $, .RADIAN. ) );
#152 = CC_DESIGN_DATE_AND_TIME_ASSIGNMENT ( #67, #161, ( #23 ) ) ;
#153 = ORIENTED_EDGE ( 'NONE', *, *, #96, .T. ) ;
#154 = ORIENTED_EDGE ( 'NONE', *, *, #81, .F. ) ;
#155 = CC_DESIGN_SECURITY_CLASSIFICATION ( #160, ( #69 ) ) ;
#156 = DIRECTION ( 'NONE',  ( 0.0000000000000000000, 0.0000000000000000000, 1.000000000000000000 ) ) ;
#157 = VERTEX_POINT ( 'NONE', #146 ) ;
#158 = DIRECTION ( 'NONE',  ( 0.0000000000000000000, 0.0000000000000000000, 1.000000000000000000 ) ) ;
#159 = CARTESIAN_POINT ( 'NONE',  ( 0.0000000000000000000, 0.0000000000000000000, 2.000000000000000000 ) ) ;
#160 = SECURITY_CLASSIFICATION ( '', '', #174 ) ;
#161 = DATE_TIME_ROLE ( 'creation_date' ) ;
#162 = CARTESIAN_POINT ( 'NONE',  ( -25.00000000000000000, 0.0000000000000000000, 2.000000000000000000 ) ) ;
#163 = AXIS2_PLACEMENT_3D ( 'NONE', #10, #158, #101 ) ;
#164 =( LENGTH_UNIT ( ) NAMED_UNIT ( * ) SI_UNIT ( .MILLI., .METRE. ) );
#165 = VECTOR ( 'NONE', #99, 1000.000000000000000 ) ;
#166 = APPLICATION_PROTOCOL_DEFINITION ( 'international standard', 'config_control_design', 1994, #22 ) ;
#167 = CC_DESIGN_PERSON_AND_ORGANIZATION_ASSIGNMENT ( #4, #63, ( #69 ) ) ;
#168 = ORIENTED_EDGE ( 'NONE', *, *, #96, .F. ) ;
#169 = CALENDAR_DATE ( 2017, 6, 9 ) ;
#170 = CALENDAR_DATE ( 2017, 6, 9 ) ;
#171 = CARTESIAN_POINT ( 'NONE',  ( 25.00000000000000000, 3.061616997868383000E-015, 2.000000000000000000 ) ) ;
#172 = ADVANCED_BREP_SHAPE_REPRESENTATION ( '34428_37011', ( #39, #124 ), #82 ) ;
#173 = ORGANIZATION ( 'UNSPECIFIED', 'UNSPECIFIED', '' ) ;
#174 = SECURITY_CLASSIFICATION_LEVEL ( 'unclassified' ) ;
#175 = CARTESIAN_POINT ( 'NONE',  ( 0.0000000000000000000, 0.0000000000000000000, 2.000000000000000000 ) ) ;
ENDSEC;
END-ISO-10303-21;
