ISO-10303-21;
HEADER;
FILE_DESCRIPTION (( 'STEP AP203' ),
    '1' );
FILE_NAME ('43369C_36582.step',
    '2017-07-20T12:44:56',
    ( '' ),
    ( '' ),
    'SwSTEP 2.0',
    'SolidWorks 2016',
    '' );
FILE_SCHEMA (( 'CONFIG_CONTROL_DESIGN' ));
ENDSEC;

DATA;
#1 = DIRECTION ( 'NONE',  ( 0.0000000000000000000, 0.0000000000000000000, 1.000000000000000000 ) ) ;
#2 = ADVANCED_FACE ( 'NONE', ( #75 ), #113, .F. ) ;
#3 = CARTESIAN_POINT ( 'NONE',  ( 0.0000000000000000000, 0.0000000000000000000, -1.149999999999999900 ) ) ;
#4 = DIRECTION ( 'NONE',  ( 1.000000000000000000, 0.0000000000000000000, 0.0000000000000000000 ) ) ;
#5 = CIRCLE ( 'NONE', #80, 12.50000000000000000 ) ;
#6 = CC_DESIGN_APPROVAL ( #166, ( #156 ) ) ;
#7 = LOCAL_TIME ( 8, 44, 56.00000000000000000, #85 ) ;
#8 = CIRCLE ( 'NONE', #60, 12.50000000000000000 ) ;
#9 = EDGE_LOOP ( 'NONE', ( #55, #23 ) ) ;
#10 = EDGE_CURVE ( 'NONE', #39, #120, #117, .T. ) ;
#11 = CLOSED_SHELL ( 'NONE', ( #115, #160, #65, #2 ) ) ;
#12 = CIRCLE ( 'NONE', #54, 12.50000000000000000 ) ;
#13 = CARTESIAN_POINT ( 'NONE',  ( 0.0000000000000000000, 0.0000000000000000000, 0.0000000000000000000 ) ) ;
#14 = UNCERTAINTY_MEASURE_WITH_UNIT (LENGTH_MEASURE( 1.000000000000000100E-005 ), #108, 'distance_accuracy_value', 'NONE');
#15 = DIRECTION ( 'NONE',  ( 1.000000000000000000, 0.0000000000000000000, 0.0000000000000000000 ) ) ;
#16 = CC_DESIGN_PERSON_AND_ORGANIZATION_ASSIGNMENT ( #28, #68, ( #156 ) ) ;
#17 = LOCAL_TIME ( 8, 44, 56.00000000000000000, #118 ) ;
#18 = APPROVAL_STATUS ( 'not_yet_approved' ) ;
#19 = DIRECTION ( 'NONE',  ( 1.000000000000000000, 0.0000000000000000000, -0.0000000000000000000 ) ) ;
#20 = CARTESIAN_POINT ( 'NONE',  ( 12.50000000000000000, 1.530808498934191500E-015, 1.149999999999999900 ) ) ;
#21 = CC_DESIGN_APPROVAL ( #107, ( #86 ) ) ;
#22 = DATE_AND_TIME ( #61, #96 ) ;
#23 = ORIENTED_EDGE ( 'NONE', *, *, #58, .F. ) ;
#24 = PERSON_AND_ORGANIZATION ( #157, #98 ) ;
#25 = CC_DESIGN_DATE_AND_TIME_ASSIGNMENT ( #34, #103, ( #156 ) ) ;
#26 = FACE_OUTER_BOUND ( 'NONE', #46, .T. ) ;
#27 = CARTESIAN_POINT ( 'NONE',  ( 0.0000000000000000000, 0.0000000000000000000, -1.149999999999999900 ) ) ;
#28 = PERSON_AND_ORGANIZATION ( #157, #98 ) ;
#29 = DIRECTION ( 'NONE',  ( -0.0000000000000000000, -0.0000000000000000000, -1.000000000000000000 ) ) ;
#30 = EDGE_CURVE ( 'NONE', #83, #39, #167, .T. ) ;
#31 = CARTESIAN_POINT ( 'NONE',  ( 12.50000000000000000, 1.530808498934191500E-015, -1.149999999999999900 ) ) ;
#32 = AXIS2_PLACEMENT_3D ( 'NONE', #91, #146, #134 ) ;
#33 = CC_DESIGN_SECURITY_CLASSIFICATION ( #86, ( #38 ) ) ;
#34 = DATE_AND_TIME ( #63, #17 ) ;
#35 = PERSON_AND_ORGANIZATION_ROLE ( 'design_owner' ) ;
#36 = CARTESIAN_POINT ( 'NONE',  ( -12.50000000000000000, 0.0000000000000000000, 1.149999999999999900 ) ) ;
#37 = APPLICATION_PROTOCOL_DEFINITION ( 'international standard', 'config_control_design', 1994, #125 ) ;
#38 = PRODUCT_DEFINITION_FORMATION_WITH_SPECIFIED_SOURCE ( 'ANY', '', #62, .NOT_KNOWN. ) ;
#39 = VERTEX_POINT ( 'NONE', #147 ) ;
#40 = EDGE_LOOP ( 'NONE', ( #169, #152, #77, #92 ) ) ;
#41 = EDGE_CURVE ( 'NONE', #72, #120, #12, .T. ) ;
#42 = LOCAL_TIME ( 8, 44, 56.00000000000000000, #110 ) ;
#43 = AXIS2_PLACEMENT_3D ( 'NONE', #3, #136, #19 ) ;
#44 = PRODUCT_RELATED_PRODUCT_CATEGORY ( 'detail', '', ( #62 ) ) ;
#45 = PLANE ( 'NONE',  #89 ) ;
#46 = EDGE_LOOP ( 'NONE', ( #135, #82, #123, #170 ) ) ;
#47 = APPROVAL_DATE_TIME ( #175, #50 ) ;
#48 = ORIENTED_EDGE ( 'NONE', *, *, #84, .T. ) ;
#49 = CARTESIAN_POINT ( 'NONE',  ( 0.0000000000000000000, 0.0000000000000000000, 1.149999999999999900 ) ) ;
#50 = APPROVAL ( #79, 'UNSPECIFIED' ) ;
#51 = ORIENTED_EDGE ( 'NONE', *, *, #30, .T. ) ;
#52 = MANIFOLD_SOLID_BREP ( 'Boss-Extrude1', #11 ) ;
#53 = EDGE_CURVE ( 'NONE', #83, #72, #132, .T. ) ;
#54 = AXIS2_PLACEMENT_3D ( 'NONE', #78, #1, #15 ) ;
#55 = ORIENTED_EDGE ( 'NONE', *, *, #41, .F. ) ;
#56 = CC_DESIGN_APPROVAL ( #50, ( #38 ) ) ;
#57 = DIRECTION ( 'NONE',  ( 0.0000000000000000000, 0.0000000000000000000, 1.000000000000000000 ) ) ;
#58 = EDGE_CURVE ( 'NONE', #120, #72, #8, .T. ) ;
#59 =( NAMED_UNIT ( * ) SI_UNIT ( $, .STERADIAN. ) SOLID_ANGLE_UNIT ( ) );
#60 = AXIS2_PLACEMENT_3D ( 'NONE', #27, #173, #154 ) ;
#61 = CALENDAR_DATE ( 2017, 20, 7 ) ;
#62 = PRODUCT ( '43369C_36582', '43369C_36582', '', ( #76 ) ) ;
#63 = CALENDAR_DATE ( 2017, 20, 7 ) ;
#64 = APPROVAL_ROLE ( '' ) ;
#65 = ADVANCED_FACE ( 'NONE', ( #150 ), #45, .T. ) ;
#66 = APPROVAL_ROLE ( '' ) ;
#67 = SHAPE_DEFINITION_REPRESENTATION ( #163, #151 ) ;
#68 = PERSON_AND_ORGANIZATION_ROLE ( 'creator' ) ;
#69 = CC_DESIGN_PERSON_AND_ORGANIZATION_ASSIGNMENT ( #143, #104, ( #38 ) ) ;
#70 = PERSON_AND_ORGANIZATION ( #157, #98 ) ;
#71 = DIRECTION ( 'NONE',  ( -0.0000000000000000000, -0.0000000000000000000, -1.000000000000000000 ) ) ;
#72 = VERTEX_POINT ( 'NONE', #168 ) ;
#73 = COORDINATED_UNIVERSAL_TIME_OFFSET ( 5, 0, .BEHIND. ) ;
#74 = CC_DESIGN_PERSON_AND_ORGANIZATION_ASSIGNMENT ( #81, #137, ( #38 ) ) ;
#75 = FACE_OUTER_BOUND ( 'NONE', #9, .T. ) ;
#76 = MECHANICAL_CONTEXT ( 'NONE', #90, 'mechanical' ) ;
#77 = ORIENTED_EDGE ( 'NONE', *, *, #58, .T. ) ;
#78 = CARTESIAN_POINT ( 'NONE',  ( 0.0000000000000000000, 0.0000000000000000000, -1.149999999999999900 ) ) ;
#79 = APPROVAL_STATUS ( 'not_yet_approved' ) ;
#80 = AXIS2_PLACEMENT_3D ( 'NONE', #49, #99, #122 ) ;
#81 = PERSON_AND_ORGANIZATION ( #157, #98 ) ;
#82 = ORIENTED_EDGE ( 'NONE', *, *, #30, .F. ) ;
#83 = VERTEX_POINT ( 'NONE', #142 ) ;
#84 = EDGE_CURVE ( 'NONE', #39, #83, #5, .T. ) ;
#85 = COORDINATED_UNIVERSAL_TIME_OFFSET ( 5, 0, .BEHIND. ) ;
#86 = SECURITY_CLASSIFICATION ( '', '', #102 ) ;
#87 = CARTESIAN_POINT ( 'NONE',  ( 0.0000000000000000000, 0.0000000000000000000, 1.149999999999999900 ) ) ;
#88 = DIRECTION ( 'NONE',  ( -1.000000000000000000, 0.0000000000000000000, 0.0000000000000000000 ) ) ;
#89 = AXIS2_PLACEMENT_3D ( 'NONE', #87, #57, #133 ) ;
#90 = APPLICATION_CONTEXT ( 'configuration controlled 3d designs of mechanical parts and assemblies' ) ;
#91 = CARTESIAN_POINT ( 'NONE',  ( 0.0000000000000000000, 0.0000000000000000000, 1.149999999999999900 ) ) ;
#92 = ORIENTED_EDGE ( 'NONE', *, *, #53, .F. ) ;
#93 = VECTOR ( 'NONE', #126, 1000.000000000000000 ) ;
#94 = CC_DESIGN_PERSON_AND_ORGANIZATION_ASSIGNMENT ( #70, #116, ( #86 ) ) ;
#95 =( GEOMETRIC_REPRESENTATION_CONTEXT ( 3 ) GLOBAL_UNCERTAINTY_ASSIGNED_CONTEXT ( ( #14 ) ) GLOBAL_UNIT_ASSIGNED_CONTEXT ( ( #108, #121, #59 ) ) REPRESENTATION_CONTEXT ( 'NONE', 'WORKASPACE' ) );
#96 = LOCAL_TIME ( 8, 44, 56.00000000000000000, #128 ) ;
#97 = CARTESIAN_POINT ( 'NONE',  ( 0.0000000000000000000, 0.0000000000000000000, 1.149999999999999900 ) ) ;
#98 = ORGANIZATION ( 'UNSPECIFIED', 'UNSPECIFIED', '' ) ;
#99 = DIRECTION ( 'NONE',  ( 0.0000000000000000000, 0.0000000000000000000, 1.000000000000000000 ) ) ;
#100 = CC_DESIGN_DATE_AND_TIME_ASSIGNMENT ( #129, #144, ( #86 ) ) ;
#101 = PERSON_AND_ORGANIZATION ( #157, #98 ) ;
#102 = SECURITY_CLASSIFICATION_LEVEL ( 'unclassified' ) ;
#103 = DATE_TIME_ROLE ( 'creation_date' ) ;
#104 = PERSON_AND_ORGANIZATION_ROLE ( 'creator' ) ;
#105 = CALENDAR_DATE ( 2017, 20, 7 ) ;
#106 = CYLINDRICAL_SURFACE ( 'NONE', #119, 12.50000000000000000 ) ;
#107 = APPROVAL ( #127, 'UNSPECIFIED' ) ;
#108 =( LENGTH_UNIT ( ) NAMED_UNIT ( * ) SI_UNIT ( .MILLI., .METRE. ) );
#109 = DIRECTION ( 'NONE',  ( -1.000000000000000000, 0.0000000000000000000, 0.0000000000000000000 ) ) ;
#110 = COORDINATED_UNIVERSAL_TIME_OFFSET ( 5, 0, .BEHIND. ) ;
#111 = AXIS2_PLACEMENT_3D ( 'NONE', #97, #71, #88 ) ;
#112 = APPROVAL_ROLE ( '' ) ;
#113 = PLANE ( 'NONE',  #43 ) ;
#114 = APPROVAL_PERSON_ORGANIZATION ( #101, #166, #64 ) ;
#115 = ADVANCED_FACE ( 'NONE', ( #162 ), #171, .T. ) ;
#116 = PERSON_AND_ORGANIZATION_ROLE ( 'classification_officer' ) ;
#117 = LINE ( 'NONE', #20, #149 ) ;
#118 = COORDINATED_UNIVERSAL_TIME_OFFSET ( 5, 0, .BEHIND. ) ;
#119 = AXIS2_PLACEMENT_3D ( 'NONE', #141, #29, #109 ) ;
#120 = VERTEX_POINT ( 'NONE', #31 ) ;
#121 =( NAMED_UNIT ( * ) PLANE_ANGLE_UNIT ( ) SI_UNIT ( $, .RADIAN. ) );
#122 = DIRECTION ( 'NONE',  ( 1.000000000000000000, 0.0000000000000000000, 0.0000000000000000000 ) ) ;
#123 = ORIENTED_EDGE ( 'NONE', *, *, #53, .T. ) ;
#124 = LOCAL_TIME ( 8, 44, 56.00000000000000000, #73 ) ;
#125 = APPLICATION_CONTEXT ( 'configuration controlled 3d designs of mechanical parts and assemblies' ) ;
#126 = DIRECTION ( 'NONE',  ( -0.0000000000000000000, -0.0000000000000000000, -1.000000000000000000 ) ) ;
#127 = APPROVAL_STATUS ( 'not_yet_approved' ) ;
#128 = COORDINATED_UNIVERSAL_TIME_OFFSET ( 5, 0, .BEHIND. ) ;
#129 = DATE_AND_TIME ( #105, #124 ) ;
#130 = DIRECTION ( 'NONE',  ( 0.0000000000000000000, 0.0000000000000000000, 1.000000000000000000 ) ) ;
#131 = DATE_AND_TIME ( #139, #42 ) ;
#132 = LINE ( 'NONE', #36, #93 ) ;
#133 = DIRECTION ( 'NONE',  ( 1.000000000000000000, 0.0000000000000000000, -0.0000000000000000000 ) ) ;
#134 = DIRECTION ( 'NONE',  ( 1.000000000000000000, 0.0000000000000000000, 0.0000000000000000000 ) ) ;
#135 = ORIENTED_EDGE ( 'NONE', *, *, #10, .F. ) ;
#136 = DIRECTION ( 'NONE',  ( 0.0000000000000000000, 0.0000000000000000000, 1.000000000000000000 ) ) ;
#137 = PERSON_AND_ORGANIZATION_ROLE ( 'design_supplier' ) ;
#138 = EDGE_LOOP ( 'NONE', ( #51, #48 ) ) ;
#139 = CALENDAR_DATE ( 2017, 20, 7 ) ;
#140 = AXIS2_PLACEMENT_3D ( 'NONE', #13, #130, #4 ) ;
#141 = CARTESIAN_POINT ( 'NONE',  ( 0.0000000000000000000, 0.0000000000000000000, 1.149999999999999900 ) ) ;
#142 = CARTESIAN_POINT ( 'NONE',  ( -12.50000000000000000, 0.0000000000000000000, 1.149999999999999900 ) ) ;
#143 = PERSON_AND_ORGANIZATION ( #157, #98 ) ;
#144 = DATE_TIME_ROLE ( 'classification_date' ) ;
#145 = PERSON_AND_ORGANIZATION ( #157, #98 ) ;
#146 = DIRECTION ( 'NONE',  ( 0.0000000000000000000, 0.0000000000000000000, 1.000000000000000000 ) ) ;
#147 = CARTESIAN_POINT ( 'NONE',  ( 12.50000000000000000, 1.530808498934191500E-015, 1.149999999999999900 ) ) ;
#148 = CC_DESIGN_PERSON_AND_ORGANIZATION_ASSIGNMENT ( #145, #35, ( #62 ) ) ;
#149 = VECTOR ( 'NONE', #159, 1000.000000000000000 ) ;
#150 = FACE_OUTER_BOUND ( 'NONE', #138, .T. ) ;
#151 = ADVANCED_BREP_SHAPE_REPRESENTATION ( '43369C_36582', ( #52, #140 ), #95 ) ;
#152 = ORIENTED_EDGE ( 'NONE', *, *, #10, .T. ) ;
#153 = APPROVAL_DATE_TIME ( #22, #107 ) ;
#154 = DIRECTION ( 'NONE',  ( 1.000000000000000000, 0.0000000000000000000, 0.0000000000000000000 ) ) ;
#155 = APPROVAL_PERSON_ORGANIZATION ( #24, #107, #66 ) ;
#156 = PRODUCT_DEFINITION ( 'UNKNOWN', '', #38, #172 ) ;
#157 = PERSON ( 'UNSPECIFIED', 'UNSPECIFIED', 'UNSPECIFIED', ('UNSPECIFIED'), ('UNSPECIFIED'), ('UNSPECIFIED') ) ;
#158 = APPLICATION_PROTOCOL_DEFINITION ( 'international standard', 'config_control_design', 1994, #90 ) ;
#159 = DIRECTION ( 'NONE',  ( -0.0000000000000000000, -0.0000000000000000000, -1.000000000000000000 ) ) ;
#160 = ADVANCED_FACE ( 'NONE', ( #26 ), #106, .T. ) ;
#161 = CALENDAR_DATE ( 2017, 20, 7 ) ;
#162 = FACE_OUTER_BOUND ( 'NONE', #40, .T. ) ;
#163 = PRODUCT_DEFINITION_SHAPE ( 'NONE', 'NONE',  #156 ) ;
#164 = APPROVAL_DATE_TIME ( #131, #166 ) ;
#165 = APPROVAL_PERSON_ORGANIZATION ( #174, #50, #112 ) ;
#166 = APPROVAL ( #18, 'UNSPECIFIED' ) ;
#167 = CIRCLE ( 'NONE', #32, 12.50000000000000000 ) ;
#168 = CARTESIAN_POINT ( 'NONE',  ( -12.50000000000000000, 0.0000000000000000000, -1.149999999999999900 ) ) ;
#169 = ORIENTED_EDGE ( 'NONE', *, *, #84, .F. ) ;
#170 = ORIENTED_EDGE ( 'NONE', *, *, #41, .T. ) ;
#171 = CYLINDRICAL_SURFACE ( 'NONE', #111, 12.50000000000000000 ) ;
#172 = DESIGN_CONTEXT ( 'detailed design', #125, 'design' ) ;
#173 = DIRECTION ( 'NONE',  ( 0.0000000000000000000, 0.0000000000000000000, 1.000000000000000000 ) ) ;
#174 = PERSON_AND_ORGANIZATION ( #157, #98 ) ;
#175 = DATE_AND_TIME ( #161, #7 ) ;
ENDSEC;
END-ISO-10303-21;
