ISO-10303-21;
HEADER;
FILE_DESCRIPTION (( 'STEP AP203' ),
    '1' );
FILE_NAME ('Web Model 47944_13329.step',
    '2020-11-03T22:02:09',
    ( '' ),
    ( '' ),
    'SwSTEP 2.0',
    'SolidWorks 2018',
    '' );
FILE_SCHEMA (( 'CONFIG_CONTROL_DESIGN' ));
ENDSEC;

DATA;
#1 = PERSON_AND_ORGANIZATION ( #190, #210 ) ;
#2 = EDGE_CURVE ( 'NONE', #98, #154, #126, .T. ) ;
#3 = ORIENTED_EDGE ( 'NONE', *, *, #130, .F. ) ;
#4 = CC_DESIGN_PERSON_AND_ORGANIZATION_ASSIGNMENT ( #67, #75, ( #216 ) ) ;
#5 = CC_DESIGN_APPROVAL ( #233, ( #78 ) ) ;
#6 = APPLICATION_PROTOCOL_DEFINITION ( 'international standard', 'config_control_design', 1994, #146 ) ;
#7 = APPROVAL_ROLE ( '' ) ;
#8 = APPROVAL ( #150, 'UNSPECIFIED' ) ;
#9 = DIRECTION ( 'NONE',  ( 1.000000000000000000, 0.0000000000000000000, 0.0000000000000000000 ) ) ;
#10 = CC_DESIGN_DATE_AND_TIME_ASSIGNMENT ( #33, #127, ( #78 ) ) ;
#11 = LINE ( 'NONE', #105, #141 ) ;
#12 = CARTESIAN_POINT ( 'NONE',  ( 0.0000000000000000000, 50.00000000000000000, -4.000000000000000000 ) ) ;
#13 = CARTESIAN_POINT ( 'NONE',  ( 0.0000000000000000000, 0.0000000000000000000, 0.0000000000000000000 ) ) ;
#14 = DIRECTION ( 'NONE',  ( 0.0000000000000000000, 0.0000000000000000000, 1.000000000000000000 ) ) ;
#15 = PLANE ( 'NONE',  #86 ) ;
#16 = EDGE_CURVE ( 'NONE', #196, #98, #42, .T. ) ;
#17 = ORIENTED_EDGE ( 'NONE', *, *, #38, .T. ) ;
#18 = EDGE_CURVE ( 'NONE', #214, #154, #26, .T. ) ;
#19 = FACE_OUTER_BOUND ( 'NONE', #170, .T. ) ;
#20 = DESIGN_CONTEXT ( 'detailed design', #146, 'design' ) ;
#21 = VECTOR ( 'NONE', #148, 1000.000000000000000 ) ;
#22 = APPROVAL_STATUS ( 'not_yet_approved' ) ;
#23 = FACE_OUTER_BOUND ( 'NONE', #223, .T. ) ;
#24 = MECHANICAL_CONTEXT ( 'NONE', #50, 'mechanical' ) ;
#25 = DIRECTION ( 'NONE',  ( 1.000000000000000000, 0.0000000000000000000, 0.0000000000000000000 ) ) ;
#26 = LINE ( 'NONE', #51, #40 ) ;
#27 = PERSON_AND_ORGANIZATION_ROLE ( 'design_owner' ) ;
#28 = CARTESIAN_POINT ( 'NONE',  ( 50.00000000000000000, 0.0000000000000000000, 0.0000000000000000000 ) ) ;
#29 = PERSON_AND_ORGANIZATION ( #190, #210 ) ;
#30 = ORIENTED_EDGE ( 'NONE', *, *, #197, .T. ) ;
#31 = APPROVAL ( #188, 'UNSPECIFIED' ) ;
#32 = PLANE ( 'NONE',  #158 ) ;
#33 = DATE_AND_TIME ( #81, #195 ) ;
#34 = CALENDAR_DATE ( 2020, 3, 11 ) ;
#35 = LOCAL_TIME ( 17, 2, 9.000000000000000000, #46 ) ;
#36 = PERSON_AND_ORGANIZATION ( #190, #210 ) ;
#37 = ORIENTED_EDGE ( 'NONE', *, *, #84, .T. ) ;
#38 = EDGE_CURVE ( 'NONE', #111, #183, #11, .T. ) ;
#39 = ORIENTED_EDGE ( 'NONE', *, *, #16, .F. ) ;
#40 = VECTOR ( 'NONE', #208, 1000.000000000000000 ) ;
#41 = CC_DESIGN_SECURITY_CLASSIFICATION ( #78, ( #177 ) ) ;
#42 = LINE ( 'NONE', #120, #21 ) ;
#43 = AXIS2_PLACEMENT_3D ( 'NONE', #215, #137, #235 ) ;
#44 = CARTESIAN_POINT ( 'NONE',  ( 0.0000000000000000000, 0.0000000000000000000, -4.000000000000000000 ) ) ;
#45 = ADVANCED_FACE ( 'NONE', ( #230 ), #168, .T. ) ;
#46 = COORDINATED_UNIVERSAL_TIME_OFFSET ( 5, 0, .BEHIND. ) ;
#47 = DIRECTION ( 'NONE',  ( 0.0000000000000000000, 0.0000000000000000000, -1.000000000000000000 ) ) ;
#48 = LINE ( 'NONE', #212, #85 ) ;
#49 = APPROVAL_ROLE ( '' ) ;
#50 = APPLICATION_CONTEXT ( 'configuration controlled 3d designs of mechanical parts and assemblies' ) ;
#51 = CARTESIAN_POINT ( 'NONE',  ( 50.00000000000000000, 0.0000000000000000000, -4.000000000000000000 ) ) ;
#52 = COORDINATED_UNIVERSAL_TIME_OFFSET ( 5, 0, .BEHIND. ) ;
#53 = APPROVAL_ROLE ( '' ) ;
#54 = DIRECTION ( 'NONE',  ( -1.000000000000000000, 0.0000000000000000000, -0.0000000000000000000 ) ) ;
#55 = CARTESIAN_POINT ( 'NONE',  ( 50.00000000000000000, 0.0000000000000000000, 0.0000000000000000000 ) ) ;
#56 = CARTESIAN_POINT ( 'NONE',  ( 50.00000000000000000, 50.00000000000000000, 0.0000000000000000000 ) ) ;
#57 = CARTESIAN_POINT ( 'NONE',  ( 0.0000000000000000000, 0.0000000000000000000, -4.000000000000000000 ) ) ;
#58 = ORIENTED_EDGE ( 'NONE', *, *, #121, .T. ) ;
#59 = CC_DESIGN_DATE_AND_TIME_ASSIGNMENT ( #166, #66, ( #216 ) ) ;
#60 = LOCAL_TIME ( 17, 2, 9.000000000000000000, #225 ) ;
#61 = VECTOR ( 'NONE', #159, 1000.000000000000000 ) ;
#62 = ORIENTED_EDGE ( 'NONE', *, *, #2, .T. ) ;
#63 = CARTESIAN_POINT ( 'NONE',  ( 0.0000000000000000000, 50.00000000000000000, -4.000000000000000000 ) ) ;
#64 = CC_DESIGN_APPROVAL ( #8, ( #177 ) ) ;
#65 = PRODUCT_DEFINITION_SHAPE ( 'NONE', 'NONE',  #216 ) ;
#66 = DATE_TIME_ROLE ( 'creation_date' ) ;
#67 = PERSON_AND_ORGANIZATION ( #190, #210 ) ;
#68 = PERSON_AND_ORGANIZATION ( #190, #210 ) ;
#69 = UNCERTAINTY_MEASURE_WITH_UNIT (LENGTH_MEASURE( 1.000000000000000082E-05 ), #189, 'distance_accuracy_value', 'NONE');
#70 = LOCAL_TIME ( 17, 2, 9.000000000000000000, #226 ) ;
#71 = EDGE_CURVE ( 'NONE', #196, #214, #106, .T. ) ;
#72 = CC_DESIGN_APPROVAL ( #31, ( #216 ) ) ;
#73 = DIRECTION ( 'NONE',  ( 1.000000000000000000, 0.0000000000000000000, 0.0000000000000000000 ) ) ;
#74 = PERSON_AND_ORGANIZATION_ROLE ( 'classification_officer' ) ;
#75 = PERSON_AND_ORGANIZATION_ROLE ( 'creator' ) ;
#76 = CARTESIAN_POINT ( 'NONE',  ( 0.0000000000000000000, 50.00000000000000000, 0.0000000000000000000 ) ) ;
#77 = ORIENTED_EDGE ( 'NONE', *, *, #71, .F. ) ;
#78 = SECURITY_CLASSIFICATION ( '', '', #116 ) ;
#79 = CARTESIAN_POINT ( 'NONE',  ( 0.0000000000000000000, 0.0000000000000000000, 0.0000000000000000000 ) ) ;
#80 = DATE_AND_TIME ( #161, #60 ) ;
#81 = CALENDAR_DATE ( 2020, 3, 11 ) ;
#82 = EDGE_LOOP ( 'NONE', ( #163, #236, #115, #77 ) ) ;
#83 = CARTESIAN_POINT ( 'NONE',  ( 0.0000000000000000000, 0.0000000000000000000, 0.0000000000000000000 ) ) ;
#84 = EDGE_CURVE ( 'NONE', #200, #196, #204, .T. ) ;
#85 = VECTOR ( 'NONE', #194, 1000.000000000000000 ) ;
#86 = AXIS2_PLACEMENT_3D ( 'NONE', #153, #97, #96 ) ;
#87 = FACE_OUTER_BOUND ( 'NONE', #185, .T. ) ;
#88 = ADVANCED_FACE ( 'NONE', ( #237 ), #228, .T. ) ;
#89 = VECTOR ( 'NONE', #14, 1000.000000000000000 ) ;
#90 = CC_DESIGN_PERSON_AND_ORGANIZATION_ASSIGNMENT ( #68, #74, ( #78 ) ) ;
#91 = CARTESIAN_POINT ( 'NONE',  ( 0.0000000000000000000, 0.0000000000000000000, -4.000000000000000000 ) ) ;
#92 = PERSON_AND_ORGANIZATION_ROLE ( 'design_supplier' ) ;
#93 = DIRECTION ( 'NONE',  ( -1.000000000000000000, 0.0000000000000000000, -0.0000000000000000000 ) ) ;
#94 = VECTOR ( 'NONE', #25, 1000.000000000000000 ) ;
#95 = CARTESIAN_POINT ( 'NONE',  ( 0.0000000000000000000, 50.00000000000000000, -4.000000000000000000 ) ) ;
#96 = DIRECTION ( 'NONE',  ( 0.0000000000000000000, 0.0000000000000000000, 1.000000000000000000 ) ) ;
#97 = DIRECTION ( 'NONE',  ( -1.000000000000000000, 0.0000000000000000000, 0.0000000000000000000 ) ) ;
#98 = VERTEX_POINT ( 'NONE', #187 ) ;
#99 = APPROVAL_DATE_TIME ( #80, #31 ) ;
#100 = MANIFOLD_SOLID_BREP ( 'Extrude1', #218 ) ;
#101 = ORIENTED_EDGE ( 'NONE', *, *, #213, .T. ) ;
#102 = VECTOR ( 'NONE', #145, 1000.000000000000000 ) ;
#103 = APPROVAL_PERSON_ORGANIZATION ( #125, #8, #53 ) ;
#104 = EDGE_CURVE ( 'NONE', #203, #111, #48, .T. ) ;
#105 = CARTESIAN_POINT ( 'NONE',  ( 0.0000000000000000000, 50.00000000000000000, 0.0000000000000000000 ) ) ;
#106 = LINE ( 'NONE', #91, #139 ) ;
#107 = APPROVAL_PERSON_ORGANIZATION ( #178, #31, #49 ) ;
#108 = CARTESIAN_POINT ( 'NONE',  ( 0.0000000000000000000, 50.00000000000000000, -4.000000000000000000 ) ) ;
#109 = DIRECTION ( 'NONE',  ( 0.0000000000000000000, 1.000000000000000000, 0.0000000000000000000 ) ) ;
#110 = AXIS2_PLACEMENT_3D ( 'NONE', #12, #47, #93 ) ;
#111 = VERTEX_POINT ( 'NONE', #56 ) ;
#112 = ORIENTED_EDGE ( 'NONE', *, *, #18, .F. ) ;
#113 = DIRECTION ( 'NONE',  ( 0.0000000000000000000, -0.0000000000000000000, 1.000000000000000000 ) ) ;
#114 = FACE_OUTER_BOUND ( 'NONE', #157, .T. ) ;
#115 = ORIENTED_EDGE ( 'NONE', *, *, #213, .F. ) ;
#116 = SECURITY_CLASSIFICATION_LEVEL ( 'unclassified' ) ;
#117 = LINE ( 'NONE', #181, #61 ) ;
#118 = ORIENTED_EDGE ( 'NONE', *, *, #16, .T. ) ;
#119 = COORDINATED_UNIVERSAL_TIME_OFFSET ( 5, 0, .BEHIND. ) ;
#120 = CARTESIAN_POINT ( 'NONE',  ( 0.0000000000000000000, 0.0000000000000000000, -4.000000000000000000 ) ) ;
#121 = EDGE_CURVE ( 'NONE', #154, #111, #123, .T. ) ;
#122 = APPLICATION_PROTOCOL_DEFINITION ( 'international standard', 'config_control_design', 1994, #50 ) ;
#123 = LINE ( 'NONE', #28, #217 ) ;
#124 = DIRECTION ( 'NONE',  ( -1.000000000000000000, -0.0000000000000000000, -0.0000000000000000000 ) ) ;
#125 = PERSON_AND_ORGANIZATION ( #190, #210 ) ;
#126 = LINE ( 'NONE', #13, #94 ) ;
#127 = DATE_TIME_ROLE ( 'classification_date' ) ;
#128 = LINE ( 'NONE', #79, #152 ) ;
#129 = ORIENTED_EDGE ( 'NONE', *, *, #104, .T. ) ;
#130 = EDGE_CURVE ( 'NONE', #183, #98, #128, .T. ) ;
#131 = ADVANCED_FACE ( 'NONE', ( #23 ), #15, .T. ) ;
#132 = ORIENTED_EDGE ( 'NONE', *, *, #130, .T. ) ;
#133 = PLANE ( 'NONE',  #136 ) ;
#134 = ORIENTED_EDGE ( 'NONE', *, *, #104, .F. ) ;
#135 = CARTESIAN_POINT ( 'NONE',  ( 0.0000000000000000000, 50.00000000000000000, 0.0000000000000000000 ) ) ;
#136 = AXIS2_PLACEMENT_3D ( 'NONE', #135, #151, #54 ) ;
#137 = DIRECTION ( 'NONE',  ( 0.0000000000000000000, -1.000000000000000000, 0.0000000000000000000 ) ) ;
#138 = EDGE_LOOP ( 'NONE', ( #220, #112, #101, #129 ) ) ;
#139 = VECTOR ( 'NONE', #9, 1000.000000000000000 ) ;
#140 = VECTOR ( 'NONE', #124, 1000.000000000000000 ) ;
#141 = VECTOR ( 'NONE', #205, 1000.000000000000000 ) ;
#142 = ORIENTED_EDGE ( 'NONE', *, *, #38, .F. ) ;
#143 = ADVANCED_FACE ( 'NONE', ( #87 ), #232, .T. ) ;
#144 = AXIS2_PLACEMENT_3D ( 'NONE', #162, #73, #165 ) ;
#145 = DIRECTION ( 'NONE',  ( -0.0000000000000000000, -1.000000000000000000, -0.0000000000000000000 ) ) ;
#146 = APPLICATION_CONTEXT ( 'configuration controlled 3d designs of mechanical parts and assemblies' ) ;
#147 =( NAMED_UNIT ( * ) PLANE_ANGLE_UNIT ( ) SI_UNIT ( $, .RADIAN. ) );
#148 = DIRECTION ( 'NONE',  ( 0.0000000000000000000, 0.0000000000000000000, 1.000000000000000000 ) ) ;
#149 = ORIENTED_EDGE ( 'NONE', *, *, #224, .T. ) ;
#150 = APPROVAL_STATUS ( 'not_yet_approved' ) ;
#151 = DIRECTION ( 'NONE',  ( 0.0000000000000000000, 0.0000000000000000000, -1.000000000000000000 ) ) ;
#152 = VECTOR ( 'NONE', #172, 1000.000000000000000 ) ;
#153 = CARTESIAN_POINT ( 'NONE',  ( 0.0000000000000000000, 0.0000000000000000000, -4.000000000000000000 ) ) ;
#154 = VERTEX_POINT ( 'NONE', #55 ) ;
#155 = DIRECTION ( 'NONE',  ( 0.0000000000000000000, 1.000000000000000000, 0.0000000000000000000 ) ) ;
#156 = PERSON_AND_ORGANIZATION ( #190, #210 ) ;
#157 = EDGE_LOOP ( 'NONE', ( #142, #134, #30, #149 ) ) ;
#158 = AXIS2_PLACEMENT_3D ( 'NONE', #192, #155, #113 ) ;
#159 = DIRECTION ( 'NONE',  ( 0.0000000000000000000, 1.000000000000000000, 0.0000000000000000000 ) ) ;
#160 = ORIENTED_EDGE ( 'NONE', *, *, #2, .F. ) ;
#161 = CALENDAR_DATE ( 2020, 3, 11 ) ;
#162 = CARTESIAN_POINT ( 'NONE',  ( 50.00000000000000000, 0.0000000000000000000, -4.000000000000000000 ) ) ;
#163 = ORIENTED_EDGE ( 'NONE', *, *, #84, .F. ) ;
#164 = PERSON_AND_ORGANIZATION_ROLE ( 'creator' ) ;
#165 = DIRECTION ( 'NONE',  ( 0.0000000000000000000, 0.0000000000000000000, -1.000000000000000000 ) ) ;
#166 = DATE_AND_TIME ( #221, #35 ) ;
#167 = PRODUCT ( 'Web Model 47944_13329', 'Web Model 47944_13329', '', ( #24 ) ) ;
#168 = PLANE ( 'NONE',  #144 ) ;
#169 = CALENDAR_DATE ( 2020, 3, 11 ) ;
#170 = EDGE_LOOP ( 'NONE', ( #132, #62, #58, #17 ) ) ;
#171 = APPROVAL_DATE_TIME ( #175, #8 ) ;
#172 = DIRECTION ( 'NONE',  ( -0.0000000000000000000, -1.000000000000000000, -0.0000000000000000000 ) ) ;
#173 =( GEOMETRIC_REPRESENTATION_CONTEXT ( 3 ) GLOBAL_UNCERTAINTY_ASSIGNED_CONTEXT ( ( #69 ) ) GLOBAL_UNIT_ASSIGNED_CONTEXT ( ( #189, #147, #209 ) ) REPRESENTATION_CONTEXT ( 'NONE', 'WORKASPACE' ) );
#174 = DATE_AND_TIME ( #169, #70 ) ;
#175 = DATE_AND_TIME ( #34, #184 ) ;
#176 = ADVANCED_BREP_SHAPE_REPRESENTATION ( 'Web Model 47944_13329', ( #100, #202 ), #173 ) ;
#177 = PRODUCT_DEFINITION_FORMATION_WITH_SPECIFIED_SOURCE ( 'ANY', '', #167, .NOT_KNOWN. ) ;
#178 = PERSON_AND_ORGANIZATION ( #190, #210 ) ;
#179 = CARTESIAN_POINT ( 'NONE',  ( 50.00000000000000000, 0.0000000000000000000, -4.000000000000000000 ) ) ;
#180 = PRODUCT_RELATED_PRODUCT_CATEGORY ( 'detail', '', ( #167 ) ) ;
#181 = CARTESIAN_POINT ( 'NONE',  ( 50.00000000000000000, 0.0000000000000000000, -4.000000000000000000 ) ) ;
#182 = APPROVAL_DATE_TIME ( #174, #233 ) ;
#183 = VERTEX_POINT ( 'NONE', #76 ) ;
#184 = LOCAL_TIME ( 17, 2, 9.000000000000000000, #52 ) ;
#185 = EDGE_LOOP ( 'NONE', ( #160, #39, #229, #186 ) ) ;
#186 = ORIENTED_EDGE ( 'NONE', *, *, #18, .T. ) ;
#187 = CARTESIAN_POINT ( 'NONE',  ( 0.0000000000000000000, 0.0000000000000000000, 0.0000000000000000000 ) ) ;
#188 = APPROVAL_STATUS ( 'not_yet_approved' ) ;
#189 =( LENGTH_UNIT ( ) NAMED_UNIT ( * ) SI_UNIT ( .MILLI., .METRE. ) );
#190 = PERSON ( 'UNSPECIFIED', 'UNSPECIFIED', 'UNSPECIFIED', ('UNSPECIFIED'), ('UNSPECIFIED'), ('UNSPECIFIED') ) ;
#191 = CARTESIAN_POINT ( 'NONE',  ( 50.00000000000000000, 50.00000000000000000, -4.000000000000000000 ) ) ;
#192 = CARTESIAN_POINT ( 'NONE',  ( 0.0000000000000000000, 50.00000000000000000, -4.000000000000000000 ) ) ;
#193 = LINE ( 'NONE', #63, #89 ) ;
#194 = DIRECTION ( 'NONE',  ( 0.0000000000000000000, 0.0000000000000000000, 1.000000000000000000 ) ) ;
#195 = LOCAL_TIME ( 17, 2, 9.000000000000000000, #119 ) ;
#196 = VERTEX_POINT ( 'NONE', #57 ) ;
#197 = EDGE_CURVE ( 'NONE', #203, #200, #211, .T. ) ;
#198 = APPROVAL_PERSON_ORGANIZATION ( #29, #233, #7 ) ;
#199 = ORIENTED_EDGE ( 'NONE', *, *, #224, .F. ) ;
#200 = VERTEX_POINT ( 'NONE', #95 ) ;
#201 = ADVANCED_FACE ( 'NONE', ( #19 ), #133, .F. ) ;
#202 = AXIS2_PLACEMENT_3D ( 'NONE', #83, #207, #222 ) ;
#203 = VERTEX_POINT ( 'NONE', #191 ) ;
#204 = LINE ( 'NONE', #44, #102 ) ;
#205 = DIRECTION ( 'NONE',  ( -1.000000000000000000, -0.0000000000000000000, -0.0000000000000000000 ) ) ;
#206 = ADVANCED_FACE ( 'NONE', ( #114 ), #32, .T. ) ;
#207 = DIRECTION ( 'NONE',  ( 0.0000000000000000000, 0.0000000000000000000, 1.000000000000000000 ) ) ;
#208 = DIRECTION ( 'NONE',  ( 0.0000000000000000000, 0.0000000000000000000, 1.000000000000000000 ) ) ;
#209 =( NAMED_UNIT ( * ) SI_UNIT ( $, .STERADIAN. ) SOLID_ANGLE_UNIT ( ) );
#210 = ORGANIZATION ( 'UNSPECIFIED', 'UNSPECIFIED', '' ) ;
#211 = LINE ( 'NONE', #108, #140 ) ;
#212 = CARTESIAN_POINT ( 'NONE',  ( 50.00000000000000000, 50.00000000000000000, -4.000000000000000000 ) ) ;
#213 = EDGE_CURVE ( 'NONE', #214, #203, #117, .T. ) ;
#214 = VERTEX_POINT ( 'NONE', #179 ) ;
#215 = CARTESIAN_POINT ( 'NONE',  ( 0.0000000000000000000, 0.0000000000000000000, -4.000000000000000000 ) ) ;
#216 = PRODUCT_DEFINITION ( 'UNKNOWN', '', #177, #20 ) ;
#217 = VECTOR ( 'NONE', #109, 1000.000000000000000 ) ;
#218 = CLOSED_SHELL ( 'NONE', ( #131, #206, #45, #143, #88, #201 ) ) ;
#219 = CC_DESIGN_PERSON_AND_ORGANIZATION_ASSIGNMENT ( #1, #164, ( #177 ) ) ;
#220 = ORIENTED_EDGE ( 'NONE', *, *, #121, .F. ) ;
#221 = CALENDAR_DATE ( 2020, 3, 11 ) ;
#222 = DIRECTION ( 'NONE',  ( 1.000000000000000000, 0.0000000000000000000, 0.0000000000000000000 ) ) ;
#223 = EDGE_LOOP ( 'NONE', ( #3, #199, #37, #118 ) ) ;
#224 = EDGE_CURVE ( 'NONE', #200, #183, #193, .T. ) ;
#225 = COORDINATED_UNIVERSAL_TIME_OFFSET ( 5, 0, .BEHIND. ) ;
#226 = COORDINATED_UNIVERSAL_TIME_OFFSET ( 5, 0, .BEHIND. ) ;
#227 = CC_DESIGN_PERSON_AND_ORGANIZATION_ASSIGNMENT ( #156, #27, ( #167 ) ) ;
#228 = PLANE ( 'NONE',  #110 ) ;
#229 = ORIENTED_EDGE ( 'NONE', *, *, #71, .T. ) ;
#230 = FACE_OUTER_BOUND ( 'NONE', #138, .T. ) ;
#231 = CC_DESIGN_PERSON_AND_ORGANIZATION_ASSIGNMENT ( #36, #92, ( #177 ) ) ;
#232 = PLANE ( 'NONE',  #43 ) ;
#233 = APPROVAL ( #22, 'UNSPECIFIED' ) ;
#234 = SHAPE_DEFINITION_REPRESENTATION ( #65, #176 ) ;
#235 = DIRECTION ( 'NONE',  ( 0.0000000000000000000, -0.0000000000000000000, -1.000000000000000000 ) ) ;
#236 = ORIENTED_EDGE ( 'NONE', *, *, #197, .F. ) ;
#237 = FACE_OUTER_BOUND ( 'NONE', #82, .T. ) ;
ENDSEC;
END-ISO-10303-21;
