ISO-10303-21;
HEADER;
FILE_DESCRIPTION (( 'STEP AP203' ),
    '1' );
FILE_NAME ('Web Model 68804_68813.step',
    '2017-03-06T17:44:24',
    ( '' ),
    ( '' ),
    'SwSTEP 2.0',
    'SolidWorks 2016',
    '' );
FILE_SCHEMA (( 'CONFIG_CONTROL_DESIGN' ));
ENDSEC;

DATA;
#1 = CARTESIAN_POINT ( 'NONE',  ( 0.0000000000000000000, 0.0000000000000000000, 1.000000000000000000 ) ) ;
#2 = ORIENTED_EDGE ( 'NONE', *, *, #107, .T. ) ;
#3 = DATE_TIME_ROLE ( 'classification_date' ) ;
#4 = CARTESIAN_POINT ( 'NONE',  ( 6.499999999999999100, 7.960204194457794500E-016, 1.000000000000000000 ) ) ;
#5 = PERSON_AND_ORGANIZATION_ROLE ( 'classification_officer' ) ;
#6 = CALENDAR_DATE ( 2017, 6, 3 ) ;
#7 = ORIENTED_EDGE ( 'NONE', *, *, #169, .T. ) ;
#8 = EDGE_CURVE ( 'NONE', #128, #156, #120, .T. ) ;
#9 = APPROVAL ( #33, 'UNSPECIFIED' ) ;
#10 = PERSON_AND_ORGANIZATION ( #126, #34 ) ;
#11 = AXIS2_PLACEMENT_3D ( 'NONE', #127, #81, #43 ) ;
#12 = ORIENTED_EDGE ( 'NONE', *, *, #107, .F. ) ;
#13 = ORIENTED_EDGE ( 'NONE', *, *, #169, .F. ) ;
#14 = CARTESIAN_POINT ( 'NONE',  ( 0.0000000000000000000, 0.0000000000000000000, 1.000000000000000000 ) ) ;
#15 = DIRECTION ( 'NONE',  ( -0.0000000000000000000, -0.0000000000000000000, -1.000000000000000000 ) ) ;
#16 = CC_DESIGN_APPROVAL ( #9, ( #173 ) ) ;
#17 = EDGE_CURVE ( 'NONE', #156, #128, #92, .T. ) ;
#18 = VECTOR ( 'NONE', #89, 1000.000000000000000 ) ;
#19 = APPROVAL_ROLE ( '' ) ;
#20 = DIRECTION ( 'NONE',  ( 0.0000000000000000000, 0.0000000000000000000, 1.000000000000000000 ) ) ;
#21 = EDGE_LOOP ( 'NONE', ( #76, #7, #144, #158 ) ) ;
#22 = ADVANCED_FACE ( 'NONE', ( #157 ), #80, .F. ) ;
#23 = CALENDAR_DATE ( 2017, 6, 3 ) ;
#24 = VECTOR ( 'NONE', #46, 1000.000000000000000 ) ;
#25 = CC_DESIGN_PERSON_AND_ORGANIZATION_ASSIGNMENT ( #10, #108, ( #173 ) ) ;
#26 = EDGE_CURVE ( 'NONE', #38, #128, #86, .T. ) ;
#27 = DATE_AND_TIME ( #67, #109 ) ;
#28 = CARTESIAN_POINT ( 'NONE',  ( 0.0000000000000000000, 0.0000000000000000000, -1.000000000000000000 ) ) ;
#29 = DIRECTION ( 'NONE',  ( 1.000000000000000000, 0.0000000000000000000, 0.0000000000000000000 ) ) ;
#30 = AXIS2_PLACEMENT_3D ( 'NONE', #28, #84, #83 ) ;
#31 = CARTESIAN_POINT ( 'NONE',  ( -6.499999999999999100, 0.0000000000000000000, -1.000000000000000000 ) ) ;
#32 = CARTESIAN_POINT ( 'NONE',  ( 0.0000000000000000000, 0.0000000000000000000, 0.0000000000000000000 ) ) ;
#33 = APPROVAL_STATUS ( 'not_yet_approved' ) ;
#34 = ORGANIZATION ( 'UNSPECIFIED', 'UNSPECIFIED', '' ) ;
#35 = ADVANCED_FACE ( 'NONE', ( #160 ), #117, .T. ) ;
#36 = DESIGN_CONTEXT ( 'detailed design', #118, 'design' ) ;
#37 = CC_DESIGN_DATE_AND_TIME_ASSIGNMENT ( #77, #119, ( #173 ) ) ;
#38 = VERTEX_POINT ( 'NONE', #150 ) ;
#39 = CARTESIAN_POINT ( 'NONE',  ( 6.499999999999999100, 7.960204194457794500E-016, -1.000000000000000000 ) ) ;
#40 = ORIENTED_EDGE ( 'NONE', *, *, #72, .T. ) ;
#41 = DIRECTION ( 'NONE',  ( 1.000000000000000000, 0.0000000000000000000, 0.0000000000000000000 ) ) ;
#42 = DIRECTION ( 'NONE',  ( 1.000000000000000000, 0.0000000000000000000, -0.0000000000000000000 ) ) ;
#43 = DIRECTION ( 'NONE',  ( 1.000000000000000000, 0.0000000000000000000, -0.0000000000000000000 ) ) ;
#44 = PRODUCT_DEFINITION_FORMATION_WITH_SPECIFIED_SOURCE ( 'ANY', '', #147, .NOT_KNOWN. ) ;
#45 = CARTESIAN_POINT ( 'NONE',  ( 6.499999999999999100, 7.960204194457794500E-016, 1.000000000000000000 ) ) ;
#46 = DIRECTION ( 'NONE',  ( -0.0000000000000000000, -0.0000000000000000000, -1.000000000000000000 ) ) ;
#47 = CARTESIAN_POINT ( 'NONE',  ( -6.499999999999999100, 0.0000000000000000000, 1.000000000000000000 ) ) ;
#48 =( NAMED_UNIT ( * ) PLANE_ANGLE_UNIT ( ) SI_UNIT ( $, .RADIAN. ) );
#49 = ORIENTED_EDGE ( 'NONE', *, *, #17, .F. ) ;
#50 = CIRCLE ( 'NONE', #65, 6.499999999999999100 ) ;
#51 = ADVANCED_BREP_SHAPE_REPRESENTATION ( 'Web Model 68804_68813', ( #136, #159 ), #125 ) ;
#52 = COORDINATED_UNIVERSAL_TIME_OFFSET ( 5, 0, .BEHIND. ) ;
#53 = EDGE_LOOP ( 'NONE', ( #2, #40 ) ) ;
#54 = CALENDAR_DATE ( 2017, 6, 3 ) ;
#55 = ORIENTED_EDGE ( 'NONE', *, *, #26, .T. ) ;
#56 = APPROVAL ( #166, 'UNSPECIFIED' ) ;
#57 = FACE_OUTER_BOUND ( 'NONE', #21, .T. ) ;
#58 = CARTESIAN_POINT ( 'NONE',  ( 0.0000000000000000000, 0.0000000000000000000, 1.000000000000000000 ) ) ;
#59 = AXIS2_PLACEMENT_3D ( 'NONE', #129, #102, #29 ) ;
#60 = LOCAL_TIME ( 12, 44, 24.00000000000000000, #70 ) ;
#61 = CARTESIAN_POINT ( 'NONE',  ( 0.0000000000000000000, 0.0000000000000000000, 1.000000000000000000 ) ) ;
#62 = DIRECTION ( 'NONE',  ( 0.0000000000000000000, 0.0000000000000000000, 1.000000000000000000 ) ) ;
#63 = LOCAL_TIME ( 12, 44, 24.00000000000000000, #101 ) ;
#64 = APPROVAL_STATUS ( 'not_yet_approved' ) ;
#65 = AXIS2_PLACEMENT_3D ( 'NONE', #1, #130, #41 ) ;
#66 = CC_DESIGN_APPROVAL ( #56, ( #44 ) ) ;
#67 = CALENDAR_DATE ( 2017, 6, 3 ) ;
#68 = CYLINDRICAL_SURFACE ( 'NONE', #111, 6.499999999999999100 ) ;
#69 = PERSON_AND_ORGANIZATION ( #126, #34 ) ;
#70 = COORDINATED_UNIVERSAL_TIME_OFFSET ( 5, 0, .BEHIND. ) ;
#71 = CC_DESIGN_PERSON_AND_ORGANIZATION_ASSIGNMENT ( #97, #75, ( #44 ) ) ;
#72 = EDGE_CURVE ( 'NONE', #149, #38, #50, .T. ) ;
#73 = DIRECTION ( 'NONE',  ( 0.0000000000000000000, 0.0000000000000000000, 1.000000000000000000 ) ) ;
#74 = APPLICATION_CONTEXT ( 'configuration controlled 3d designs of mechanical parts and assemblies' ) ;
#75 = PERSON_AND_ORGANIZATION_ROLE ( 'creator' ) ;
#76 = ORIENTED_EDGE ( 'NONE', *, *, #72, .F. ) ;
#77 = DATE_AND_TIME ( #6, #171 ) ;
#78 = AXIS2_PLACEMENT_3D ( 'NONE', #14, #73, #42 ) ;
#79 = CC_DESIGN_PERSON_AND_ORGANIZATION_ASSIGNMENT ( #175, #168, ( #44 ) ) ;
#80 = PLANE ( 'NONE',  #11 ) ;
#81 = DIRECTION ( 'NONE',  ( 0.0000000000000000000, 0.0000000000000000000, 1.000000000000000000 ) ) ;
#82 = CLOSED_SHELL ( 'NONE', ( #93, #143, #35, #22 ) ) ;
#83 = DIRECTION ( 'NONE',  ( 1.000000000000000000, 0.0000000000000000000, 0.0000000000000000000 ) ) ;
#84 = DIRECTION ( 'NONE',  ( 0.0000000000000000000, 0.0000000000000000000, 1.000000000000000000 ) ) ;
#85 =( NAMED_UNIT ( * ) SI_UNIT ( $, .STERADIAN. ) SOLID_ANGLE_UNIT ( ) );
#86 = LINE ( 'NONE', #47, #18 ) ;
#87 = APPLICATION_PROTOCOL_DEFINITION ( 'international standard', 'config_control_design', 1994, #74 ) ;
#88 = APPROVAL_DATE_TIME ( #124, #56 ) ;
#89 = DIRECTION ( 'NONE',  ( -0.0000000000000000000, -0.0000000000000000000, -1.000000000000000000 ) ) ;
#90 = APPROVAL_ROLE ( '' ) ;
#91 = SECURITY_CLASSIFICATION_LEVEL ( 'unclassified' ) ;
#92 = CIRCLE ( 'NONE', #30, 6.499999999999999100 ) ;
#93 = ADVANCED_FACE ( 'NONE', ( #57 ), #68, .T. ) ;
#94 = EDGE_LOOP ( 'NONE', ( #13, #12, #55, #138 ) ) ;
#95 = LOCAL_TIME ( 12, 44, 24.00000000000000000, #114 ) ;
#96 = SECURITY_CLASSIFICATION ( '', '', #91 ) ;
#97 = PERSON_AND_ORGANIZATION ( #126, #34 ) ;
#98 = ORIENTED_EDGE ( 'NONE', *, *, #8, .F. ) ;
#99 = AXIS2_PLACEMENT_3D ( 'NONE', #58, #62, #116 ) ;
#100 = CALENDAR_DATE ( 2017, 6, 3 ) ;
#101 = COORDINATED_UNIVERSAL_TIME_OFFSET ( 5, 0, .BEHIND. ) ;
#102 = DIRECTION ( 'NONE',  ( 0.0000000000000000000, 0.0000000000000000000, 1.000000000000000000 ) ) ;
#103 = SHAPE_DEFINITION_REPRESENTATION ( #153, #51 ) ;
#104 = DIRECTION ( 'NONE',  ( -0.0000000000000000000, -0.0000000000000000000, -1.000000000000000000 ) ) ;
#105 = PERSON_AND_ORGANIZATION_ROLE ( 'design_owner' ) ;
#106 = CC_DESIGN_PERSON_AND_ORGANIZATION_ASSIGNMENT ( #113, #5, ( #96 ) ) ;
#107 = EDGE_CURVE ( 'NONE', #38, #149, #140, .T. ) ;
#108 = PERSON_AND_ORGANIZATION_ROLE ( 'creator' ) ;
#109 = LOCAL_TIME ( 12, 44, 24.00000000000000000, #52 ) ;
#110 = APPROVAL_PERSON_ORGANIZATION ( #69, #9, #90 ) ;
#111 = AXIS2_PLACEMENT_3D ( 'NONE', #61, #104, #152 ) ;
#112 = PERSON_AND_ORGANIZATION ( #126, #34 ) ;
#113 = PERSON_AND_ORGANIZATION ( #126, #34 ) ;
#114 = COORDINATED_UNIVERSAL_TIME_OFFSET ( 5, 0, .BEHIND. ) ;
#115 = CC_DESIGN_DATE_AND_TIME_ASSIGNMENT ( #27, #3, ( #96 ) ) ;
#116 = DIRECTION ( 'NONE',  ( 1.000000000000000000, 0.0000000000000000000, 0.0000000000000000000 ) ) ;
#117 = PLANE ( 'NONE',  #78 ) ;
#118 = APPLICATION_CONTEXT ( 'configuration controlled 3d designs of mechanical parts and assemblies' ) ;
#119 = DATE_TIME_ROLE ( 'creation_date' ) ;
#120 = CIRCLE ( 'NONE', #59, 6.499999999999999100 ) ;
#121 =( LENGTH_UNIT ( ) NAMED_UNIT ( * ) SI_UNIT ( .MILLI., .METRE. ) );
#122 = COORDINATED_UNIVERSAL_TIME_OFFSET ( 5, 0, .BEHIND. ) ;
#123 = APPROVAL ( #64, 'UNSPECIFIED' ) ;
#124 = DATE_AND_TIME ( #54, #95 ) ;
#125 =( GEOMETRIC_REPRESENTATION_CONTEXT ( 3 ) GLOBAL_UNCERTAINTY_ASSIGNED_CONTEXT ( ( #162 ) ) GLOBAL_UNIT_ASSIGNED_CONTEXT ( ( #121, #48, #85 ) ) REPRESENTATION_CONTEXT ( 'NONE', 'WORKASPACE' ) );
#126 = PERSON ( 'UNSPECIFIED', 'UNSPECIFIED', 'UNSPECIFIED', ('UNSPECIFIED'), ('UNSPECIFIED'), ('UNSPECIFIED') ) ;
#127 = CARTESIAN_POINT ( 'NONE',  ( 0.0000000000000000000, 0.0000000000000000000, -1.000000000000000000 ) ) ;
#128 = VERTEX_POINT ( 'NONE', #31 ) ;
#129 = CARTESIAN_POINT ( 'NONE',  ( 0.0000000000000000000, 0.0000000000000000000, -1.000000000000000000 ) ) ;
#130 = DIRECTION ( 'NONE',  ( 0.0000000000000000000, 0.0000000000000000000, 1.000000000000000000 ) ) ;
#131 = APPLICATION_PROTOCOL_DEFINITION ( 'international standard', 'config_control_design', 1994, #118 ) ;
#132 = CC_DESIGN_APPROVAL ( #123, ( #96 ) ) ;
#133 = APPROVAL_ROLE ( '' ) ;
#134 = APPROVAL_DATE_TIME ( #163, #123 ) ;
#135 = AXIS2_PLACEMENT_3D ( 'NONE', #164, #15, #148 ) ;
#136 = MANIFOLD_SOLID_BREP ( 'Boss-Extrude1', #82 ) ;
#137 = APPROVAL_PERSON_ORGANIZATION ( #167, #123, #19 ) ;
#138 = ORIENTED_EDGE ( 'NONE', *, *, #8, .T. ) ;
#139 = CC_DESIGN_SECURITY_CLASSIFICATION ( #96, ( #44 ) ) ;
#140 = CIRCLE ( 'NONE', #99, 6.499999999999999100 ) ;
#141 = PERSON_AND_ORGANIZATION ( #126, #34 ) ;
#142 = DIRECTION ( 'NONE',  ( 1.000000000000000000, 0.0000000000000000000, 0.0000000000000000000 ) ) ;
#143 = ADVANCED_FACE ( 'NONE', ( #170 ), #161, .T. ) ;
#144 = ORIENTED_EDGE ( 'NONE', *, *, #17, .T. ) ;
#145 = PRODUCT_RELATED_PRODUCT_CATEGORY ( 'detail', '', ( #147 ) ) ;
#146 = EDGE_LOOP ( 'NONE', ( #98, #49 ) ) ;
#147 = PRODUCT ( 'Web Model 68804_68813', 'Web Model 68804_68813', '', ( #155 ) ) ;
#148 = DIRECTION ( 'NONE',  ( -1.000000000000000000, 0.0000000000000000000, 0.0000000000000000000 ) ) ;
#149 = VERTEX_POINT ( 'NONE', #4 ) ;
#150 = CARTESIAN_POINT ( 'NONE',  ( -6.499999999999999100, 0.0000000000000000000, 1.000000000000000000 ) ) ;
#151 = APPROVAL_DATE_TIME ( #172, #9 ) ;
#152 = DIRECTION ( 'NONE',  ( -1.000000000000000000, 0.0000000000000000000, 0.0000000000000000000 ) ) ;
#153 = PRODUCT_DEFINITION_SHAPE ( 'NONE', 'NONE',  #173 ) ;
#154 = APPROVAL_PERSON_ORGANIZATION ( #141, #56, #133 ) ;
#155 = MECHANICAL_CONTEXT ( 'NONE', #74, 'mechanical' ) ;
#156 = VERTEX_POINT ( 'NONE', #39 ) ;
#157 = FACE_OUTER_BOUND ( 'NONE', #146, .T. ) ;
#158 = ORIENTED_EDGE ( 'NONE', *, *, #26, .F. ) ;
#159 = AXIS2_PLACEMENT_3D ( 'NONE', #32, #20, #142 ) ;
#160 = FACE_OUTER_BOUND ( 'NONE', #53, .T. ) ;
#161 = CYLINDRICAL_SURFACE ( 'NONE', #135, 6.499999999999999100 ) ;
#162 = UNCERTAINTY_MEASURE_WITH_UNIT (LENGTH_MEASURE( 1.000000000000000100E-005 ), #121, 'distance_accuracy_value', 'NONE');
#163 = DATE_AND_TIME ( #23, #63 ) ;
#164 = CARTESIAN_POINT ( 'NONE',  ( 0.0000000000000000000, 0.0000000000000000000, 1.000000000000000000 ) ) ;
#165 = CC_DESIGN_PERSON_AND_ORGANIZATION_ASSIGNMENT ( #112, #105, ( #147 ) ) ;
#166 = APPROVAL_STATUS ( 'not_yet_approved' ) ;
#167 = PERSON_AND_ORGANIZATION ( #126, #34 ) ;
#168 = PERSON_AND_ORGANIZATION_ROLE ( 'design_supplier' ) ;
#169 = EDGE_CURVE ( 'NONE', #149, #156, #174, .T. ) ;
#170 = FACE_OUTER_BOUND ( 'NONE', #94, .T. ) ;
#171 = LOCAL_TIME ( 12, 44, 24.00000000000000000, #122 ) ;
#172 = DATE_AND_TIME ( #100, #60 ) ;
#173 = PRODUCT_DEFINITION ( 'UNKNOWN', '', #44, #36 ) ;
#174 = LINE ( 'NONE', #45, #24 ) ;
#175 = PERSON_AND_ORGANIZATION ( #126, #34 ) ;
ENDSEC;
END-ISO-10303-21;
